» » »

Shadows Fall - Idle Hands Tabs

Artists:  A B C D E F G H I J K L M N O P Q R S T U V W X Y Z # 

Idle Hands Tabs

(ver. 3) Click to play this song!
Shadows Fall
 Rating:
4/5 (4 votes)

 Idle Hands lessons Tabs too difficult? Try these video lessons and learn fast
 
                

Intro:

D -------------------------------------------------------
A -------------------------------------------------------
F -------------------------------------------------------
C -------------------------------------------------------
G -33-33-33-33-32-3--------------------------------------
C -33-33-33-33-32—33333-3333-3333-333-3333-3333-3333-333-
   .. .. .. .. ..                


Verse:

D --------------------------------------------
A --------------------------------------------
F --------------------------------------------
C --------------------------------------------
G --------------------------------------------
C -3333-3333-3333-3333-3333-3333-3333-3-3-3-3-


Bridge:

D ------------------------------------------------------------------
A ------------------------------------------------------------------
F ------------------------------------------------------------------
C ------------------------------------------------------------------
G -333----333-33--333----333-33-32--333----333-33--333----333-33-32-
C -333----333-33--333----333-33-32--333----333-33--333----333-33-32-
   ...    ... ..  ...    ... .. ..  ...    ... ..  ...    ... .. ..


Chorus:

D --------------------------		x 2
A --------------------------
F --------------------------
C --------------------------
G -2----32----54----43--4-6-
C -2----32----54----43--4-6-


Repeat Verse 1


Repeat Bridge


Repeat Chorus


Fill 1:

D -01---------01------01-----------------------
A -01-230-----01-23---01-230-------------------
F --------454----------------454-54344323565-5-
C ------------------3--------------------------
G ---------------------------------------------
C ---------------------------------------------


Solo:

D -----------------------------------------
A -----------------------------------------
F -----------------------------------------
C -----------------------------------------
G -8----------3-8-657-3-8----------3-8-3-5-
C -8-88888888\3-8-657-3-8-88888888\3-8-3-5-


D ---------------------------------------
A ---------------------------------------
F ---------------------------------------
C ---------------------------------------
G -88888-76--88888-76--88888-76--8888876-
C -88888-76--88888-76--88888-76--8888876-
    ....      ....      ....      ....


D --------------------------------------------
A --------------------------------------------
F --------------------------------------------
C --------------------------------------------
G -3-8----------3-8-657-3-8----------3-8-3333-
C -3-8-88888888\3-8-657-3-8-88888888\3-8-3333-

Repeat Chorus


Outro:

D --------------------------------------------
A --------------------------------------------
F --------------------------------------------
C --------------------------------------------
G --------------------------------------------
C -3333-3333-3333-3333-3333-3333-3333-3-3-3-3-


End with:

D ----------------------------------------------
A ----------------------------------------------
F ----------------------------------------------
C ---------------------------------------4------
G ------------------------------------87--4-3-2-
C -3333-3333-3333-3333-3333-3333-3333-87----3-2-

Thanks to Century Media for distributing this record, its awesome, 
and Shadows Fall for making such a brilliant album. Enjoy! 
Comments are welcome and please rate.

systemaregods (Ashley Jackson)
            
Submit corrections


        Idle Hands lessons Hard to play? Try these video lessons and learn fast Idle Hands lessons
        
↑ Back to top | Tablatures and chords for acoustic guitar and electric guitar, ukulele, drums are parodies/interpretations of the original songs. You may use it for private study, scholarship, research or language learning purposes only