» » »

Shadows Fall - Burning The Lives Tabs

Artists:  A B C D E F G H I J K L M N O P Q R S T U V W X Y Z # 

Burning The Lives Tabs

(ver. 2) Click to play this song!
Shadows Fall
 Rating:
4/5 (8 votes)

 Burning The Lives lessons Tabs too difficult? Try these video lessons and learn fast
 
                shadows fall
burning the lives
tunung is D G C F A D

INTRO
-----------------------------------------------------------------|
-----------------------------------------------------------------|
-----------------------------------------------------------------|
------------5-5-4-4-2-2-7-7-7-7-7--------------------------------|
-2-2-2-5-5--3-3-2-2-0-0-5-5-5-5-5--2-2-0-8-8-7-7-3-3-3-3-3-3-----|
-0-0-0-3-3-------------------------0-0-0-8-8-7-7-3-3-3-3-3-3-17/-|

repeat intro and after 3 do this
                       3
----------------------------------------------------|
----------------------------------------------------|
----------------------------------------------------|
----------------------------------------------------|
-3-3-3-5-5-5-5-0-3-3-3-3-3-3-3-3-2-2-2-2-2-2-2-2-0--|
-3-3-3-5-5-5-5-0-3-3-3-3-3-3-3-3-2-2-2-2-2-2-2-2-0--|

then
----------------------------------------------------|
----------------------------------------------------|
----------------------------------------------------|
-------------------------------------5---------4----|
-5-2---------------------------------3---------2----|
-3-0-0-0-0-0-0-0-5-5-0-0-3-0-0-3-0-3---5-3-2-2------|
   pm. . . . . . . . . . . . . . . .   . . . .
next
-------------------------------------------------------|
-------------------------------------------------------|
-------------------------------------------------------|
-------------------------------------5-5---------4-----|
-5-2---------------------------------3-3---------2-3---|
-3-0-0-0-0-0-0-0-5-0-0-0-3-0-0-3-0-3-----0-0-0-0---1---|
  pm . . . . . . . . . . . . . . . .     . . . .
verse
--------------------------------------------------------|
--------------------------------------------------------|
--------------------------------------------------------|
-------------------------------------------5---------4--|
-5-2---------------------------------------3---------2--|
-3-0-0-0-0-0-0-0-5-0-0-0-3-0-0-3-0-0-3-0-3---5-3-2-2----|
  pm . . . . . . . . . . . . . . . . . . .   . . . .
--------------------------------------------------------|
--------------------------------------------------------|
--------------------------------------------------------|
-----------------------------------------5---------4----|
-5-2-------------------------------------3---------2-3--|
-3-0-0-0-0-0-0-0-5-0-0-0-3-0-0-3-0-3-0-3---0-0-0-0---2--|
  pm . . . . . . . . . . . . . . . . . .   . . . .
repeat the whole verse

pre chorus
----------------------------------------------------------------|
-5-5----------------8-8-8-8-7-7-7-7-8-8-7-7-5-5-----------------|
-----5-5-5-5-5-5-5-5----------------------------7-7-7-7-7-7-7-7-| then repeat
----------------------------------------------------------------| again
----------------------------------------------------------------|
----------------------------------------------------------------|

then repeat verse

interlude guitar 1
------------------------------------------------------------------|
------------------------------------------------------------------|
------------------------------------------------------------------|
-----------7---5---4---5-------------------7---5---4---5---4h5p4--|
-5-2-2-2-2-------0---0-----3/5-3-5-2-2-2-2-------0---0---0--------|
-3-0-0-0-0---0---0---0---0-1---1-3-0-0-0-0---0---0---0---0--------|
  pm .       .   .   .    .        . . . .   .   .   .   .
guitar 2
--------------------------------------------------------------------|
--------------------------------------------------------------------|
--------------------------------------------------5-5-5-5-7-7--7-7--|
--------------------------------------------------3-3-3-3-5-5--5-5--|
-5-2-2-2-2-2-2-2-7-7-7-7-5-5--5-5-2-2-2-2-2-2-2-2-------------------|
-3-0-0-0-0-0-0-0-5-5-5-5-3-3--3-3-0-0-0-0-0-0-0-0-------------------|
pm . . . . . . . . . . . . .  . . . . . . . . . . . . . . . .  . .

chorus
-------0-----0----------------------------------------------|
-8-----------------12-----------------10-----------8--------|
-----9-----9-----------12----------11----11---11------11----|
---9-----9----------------12----12----------12-----------12-|
------------------------------------------------------------|
---------------8--------------10-----------------8----------|

the air is getting thin
-------0---------------------------------------------------------|
-----------8------------12-----------------10--------------------|
-----9-------9-------12-----12----------11----11------------7-7--|
---9-----9--------12-----------12----12----------12---------5-5--|
-7-------------------------------------------------10-10--7------|
-0--------------8-----------------10----------------8-8---9------|

after that go back and do every thing again the here is the part when he is singing 
the lives and the pride of the inocents
-------0---------------------------------------------------------------|
-----------8-----------12-----------------10---------------------------|
-----9-------9------12-----12----------11----11------------8-----------|
---9-----9-------12-----------12----12----------12------11---11--------|
-7---------------------------------------------------12---------12-----|
-0-------------8-----------------10----------------8-------------------|

ill finish the rest later
            
Submit corrections


        Burning The Lives lessons Hard to play? Try these video lessons and learn fast Burning The Lives lessons
        
↑ Back to top | Tablatures and chords for acoustic guitar and electric guitar, ukulele, drums are parodies/interpretations of the original songs. You may use it for private study, scholarship, research or language learning purposes only