Home » S » Seventh Day Slumber »

Seventh Day Slumber - Missing Pages Tabs

Artists:  A B C D E F G H I J K L M N O P Q R S T U V W X Y Z # 

Missing Pages Tabs

(ver. 1) Click to play this song!
Seventh Day Slumber
basically same thing for the verses. not sure how to describe the strums for the chorus
bridge, so your turn.

verse 1:
e----------------------------------       e---------0---------------0--|
b----0-----0-----0---0-----0-----0-       b---0-------0---0---0--------|
g------0-----0---------0-----0----- (3x)  g-----0---------------0------|
d--------2-----2---------2-----2---       d-------2---------------2----|
a--0---------------3---------------       a----------------------------|
e----------------------------------       e-1-----------1---1----------|


chorus:no one know you anymore
(chords)
Am  F  G  E

verse 2: same as verse 1

Bridge:There's so much more
(chords)
F  G  F  G

instrumental after bridge:
e-------------------------0----------------x-----0--------|
b---0-----0-----0-----0-----0---------0----3-3-3---3-0----|
g-----0-----0-----0-----0-----0-----0---0--2--------------|
d-------2----------------------------------0--------------|
a-0-----------3-----3-----------3-5--------0--------------|
e------------------------------------------x--------------|

e-------------------------0----------------0--------------|
b---0-----0-----0-----0-----0---------0----0--------------|
g-----0-----0-----0-----0-----0-----0---0--1--------------|
d-------2----------------------------------2--------------|
a-0-----------3-----3-----------3-5--------2--------------|
e------------------------------------------0--------------|
            
Submit corrections

↑ Back to top | Tablatures and chords for acoustic guitar and electric guitar, ukulele, drums are parodies/interpretations of the original songs. You may use it for private study, scholarship, research or language learning purposes only