» » »

Set It Off - Wolf In Sheeps Clothing Bass

Artists:  A B C D E F G H I J K L M N O P Q R S T U V W X Y Z # 

Wolf In Sheeps Clothing Bass

(ver. 1) Click to play this song!
Set It Off
 Rating:
3.5/5 (25 votes)

 Wolf In Sheeps Clothing  lessons Tabs too difficult? Try these video lessons and learn fast
 
                  Verse 0:17
G|-------------------------------------------------------------------|
D|o-----------------------------------------------------------------o|
A|o-2-2---2-2-2-5-5-2-2---2-2-2-5-5-------------5-5-----------------o|
E|----------------------------------3-3---3-3-3-----2-2---2-2-2-5-5--|
    1 + 2 + 3 + 4 + 1 + 2 + 3 + 4 + 1 + 2 + 3 + 4 + 1 + 2 + 3 + 4 +

  Pre-Chorus
G|---------------------------------|
D|---------------------------------|
A|---------------------------------|
E|-3---------------5---------------|
   1 + 2 + 3 + 4 + 1 + 2 + 3 + 4 +

  Chorus
G|-----------------------------------------------------------------|
D|-----------------------------------------------------------------|
A|-----------------2---2---2---2-2-0---0---0---0-0-0---0-0-0-r-2---|
E|-3---3---3---3-3-------------------------------------------------|
   1 + 2 + 3 + 4 + 1 + 2 + 3 + 4 + 1 + 2 + 3 + 4 + 1 + 2 + 3 + 4 +

G|-----------------------------------------------------------------|
D|-----------------------------------------------------------------|
A|-----------------2---2---2---2-2-0---0---0---0---0---0-0-0---0---|
E|-3---3---3---3-3-------------------------------------------------|
   1 + 2 + 3 + 4 + 1 + 2 + 3 + 4 + 1 + 2 + 3 + 4 + 1 + 2 + 3 + 4 +

G|-----------------------------------------------------------------|
D|-----------------------------------------------------------------|
A|-----------------2---2---2---2-----------1---1---2---2---2-r-0---|
E|-3---3---3---3-------------------3---3---------------------------|
   1 + 2 + 3 + 4 + 1 + 2 + 3 + 4 + 1 + 2 + 3 + 4 + 1 + 2 + 3 + 4 +

G|---------------------------------|
D|---------------------------------|
A|---------------------------------|
E|-3---3---3---3---2---------------|
   1 + 2 + 3 + 4 + 1 + 2 + 3 + 4 +

  Interlude
G|-----------------------------------------------------------------|
D|-----------------------------------------------------------------|
A|-2-2---2-2-2-5-5-2-2---2-2-2-5-5-------------5-5-----------------|
E|---------------------------------3-3---3-3-3-----2-2---2-2-2-5-5-|
   1 + 2 + 3 + 4 + 1 + 2 + 3 + 4 + 1 + 2 + 3 + 4 + 1 + 2 + 3 + 4 +

  Rest

  Verse
G|-------------------------------------------------------------------|
D|o-----------------------------------------------------------------o|
A|o-2-2---2-2-2-5-5-2-2---2-2-2-5-5-------------5-5-----------------o|
E|----------------------------------3-3---3-3-3-----2-2---2-2-2-5-5--|
    1 + 2 + 3 + 4 + 1 + 2 + 3 + 4 + 1 + 2 + 3 + 4 + 1 + 2 + 3 + 4 +

  Pre-Chorus
G|---------------------------------|
D|---------------------------------|
A|---------------------------------|
E|-3---------------5---------------|
   1 + 2 + 3 + 4 + 1 + 2 + 3 + 4 +

  Chorus
G|-----------------------------------------------------------------|
D|-----------------------------------------------------------------|
A|-----------------2---2---2---2-2-0---0---0---0-0-0---0-0-0-r-2---|
E|-3---3---3---3-3-------------------------------------------------|
   1 + 2 + 3 + 4 + 1 + 2 + 3 + 4 + 1 + 2 + 3 + 4 + 1 + 2 + 3 + 4 +

G|-----------------------------------------------------------------|
D|-----------------------------------------------------------------|
A|-----------------2---2---2---2-2-0---0---0---0---0---0-0-0---0---|
E|-3---3---3---3-3-------------------------------------------------|
   1 + 2 + 3 + 4 + 1 + 2 + 3 + 4 + 1 + 2 + 3 + 4 + 1 + 2 + 3 + 4 +

G|-----------------------------------------------------------------|
D|-----------------------------------------------------------------|
A|-----------------2---2---2---2-----------1---1---2---2---2-r-0---|
E|-3---3---3---3-------------------3---3---------------------------|
   1 + 2 + 3 + 4 + 1 + 2 + 3 + 4 + 1 + 2 + 3 + 4 + 1 + 2 + 3 + 4 +

G|---------------------------------|
D|-----------------4---------------|
A|---------------------7---5---4---|
E|-3---3---3---3-------------------|
   1 + 2 + 3 + 4 + 1 + 2 + 3 + 4 +

  Bridge x2
G|-------------------------------------------------------------------|
D|o-----------------------------------------------------------------o|
A|--5---5-----------4-------4---------------------------4-4-5-5-7-7--|
E|o---------------------5-------5---3---3---3---3---5-5-------------o|
B|----------3-----3--------------------------------------------------|
    1 2 3 4 1 2 3 4 1 2 3 4 1 2 3 4 1 2 3 4 1 2 3 4 1 2 3 4 1 2 3 4 

  Who Am I Kidding?
G|-----------------------------------------------------------------|
D|-----------------------------------------------------------------|
A|-----------------------------------------------------------2-1---|
E|-----------------------------------------------------------------|
   1 e + a 2 e + a 3 e + a 4 e + a 1 e + a 2 e + a 3 e + a 4 e + a

G|-----------------------------------------------------------------|
D|-----------------------------------------------------------------|
A|-2---------------------------------------------------------2-1---|
E|-----------------------------------------------------------------|
   1 e + a 2 e + a 3 e + a 4 e + a 1 e + a 2 e + a 3 e + a 4 e + a

G|-----------------------------------------------------------------|
D|-------------------------------------------------4---------------|
A|-2---------2-1---2---------2-1---2-------------------7---5---4---|
E|-----------------------------------------------------------------|
   1 e + a 2 e + a 3 e + a 4 e + a 1 e + a 2 e + a 3 e + a 4 e + a

  Burn In Hell
G|-----------------------------------------------------------------|
D|-----------------------------------------------------------------|
A|-2-2-2-2-2-2-5---2-2-2-2-2-2-5---------------5-------------------|
E|---------------------------------3-3-3-3-3-3-----2-2-2-2-2-2-5---|
   1 + 2 + 3 + 4 + 1 + 2 + 3 + 4 + 1 + 2 + 3 + 4 + 1 + 2 + 3 + 4 +

G|---------------------------------------------------------------------------------|
D|-----------------------------------------------------------------4---------------|
A|-2-2-2-2-2-2-5---------------5---------------5-------1---2---4-------7---5---4---|
E|---------------------------------3-3-3-3-3-3-----2-------------------------------|
B|-----------------0-0-0-0-0-0-----------------------------------------------------|
   1 + 2 + 3 + 4 + 1 + 2 + 3 + 4 + 1 + 2 + 3 + 4 + 1 + 2 + 3 + 4 + 1 + 2 + 3 + 4 +

  Chorus
G|-----------------------------------------------------------------|
D|-----------------------------------------------------------------|
A|-----------------2---2---2---2-2-0---0---0---0-0-0---0-0-0-r-2---|
E|-3---3---3---3-3-------------------------------------------------|
   1 + 2 + 3 + 4 + 1 + 2 + 3 + 4 + 1 + 2 + 3 + 4 + 1 + 2 + 3 + 4 +

G|-----------------------------------------------------------------|
D|-----------------------------------------------------------------|
A|-----------------2---2---2---2-2-0---0---0---0---0---0-0-0---0---|
E|-3---3---3---3-3-------------------------------------------------|
   1 + 2 + 3 + 4 + 1 + 2 + 3 + 4 + 1 + 2 + 3 + 4 + 1 + 2 + 3 + 4 +

G|-----------------------------------------------------------------|
D|-----------------------------------------------------------------|
A|-----------------0---0---0---0-----------1---1---2---2---2-r-0---|
E|-3---3---3---3-------------------2---2---------------------------|
   1 + 2 + 3 + 4 + 1 + 2 + 3 + 4 + 1 + 2 + 3 + 4 + 1 + 2 + 3 + 4 +

G|---------------------------------|
D|---------------------------------|
A|---------------------------------|
E|---------------------------------|
B|-8---8---8---8---7-------\-------|
   1 + 2 + 3 + 4 + 1 + 2 + 3 + 4 +

  Outro
G|-----------------------------------------------------------------|
D|-----------------------------------------------------------------|
A|-2-2---2-2-2-5-5-2-2---2-2-2-5-5-------------5-5-----------------|
E|---------------------------------3-3---3-3-3-----2-2---2-2-2-5-5-|
   1 + 2 + 3 + 4 + 1 + 2 + 3 + 4 + 1 + 2 + 3 + 4 + 1 + 2 + 3 + 4 +

G|-----------------------------------------------------------------|
D|-----------------------------------------------------------------|
A|-2-2---2-2-2-5-5-2-2---2-2-2-5-5-------------5-------------------|
E|---------------------------------3---------3-----2---------2-5---|
   1 + 2 + 3 + 4 + 1 + 2 + 3 + 4 + 1 + 2 + 3 + 4 + 1 + 2 + 3 + 4 +

G|-----------------------------------------------------------------|
D|-----------------------------------------------------------------|
A|-2---------------------------------------------------------------|
E|-----------------------------------------------------------------|
   1 + 2 + 3 + 4 + 1 + 2 + 3 + 4 + 1 + 2 + 3 + 4 + 1 + 2 + 3 + 4 +            
Submit corrections


        Wolf In Sheeps Clothing  lessons Hard to play? Try these video lessons and learn fast Wolf In Sheeps Clothing  lessons
        
↑ Back to top | Tablatures and chords for acoustic guitar and electric guitar, ukulele, drums are parodies/interpretations of the original songs. You may use it for private study, scholarship, research or language learning purposes only