» » »

Set It Off - Forever Stuck In Our Youth Tabs

Artists:  A B C D E F G H I J K L M N O P Q R S T U V W X Y Z # 

Forever Stuck In Our Youth Tabs

(ver. 1) Click to play this song!
Set It Off
 Rating:
4/5 (4 votes)

 Forever Stuck In Our Youth  lessons Tabs too difficult? Try these video lessons and learn fast
 
                  Verse
e|-----------------------------------------------------------------|
B|-----------------------------------------------------------------|
G|-----------------------------------------------------------------|
D|-----------------------------------------------------------------|
A|-5-----5-5-7-----------------------------------------------------|
E|-----------------5---5---5-5---4---3-----3-3/8---3---3---3/8---9-|x2
   1 + 2 + 3 + 4 + 1 + 2 + 3 + 4 + 1 + 2 + 3 + 4 + 1 + 2 + 3 + 4 +

  Verse
e|---------------------------------|
B|---------------------------------|
G|---------------------------------|
D|-8-8-8-8-8-8-8-8-7-7-7-7-10------|
A|-8-8-8-8-8-8-8-8-7-7-7-7-10------|
E|-6-6-6-6-6-6-6-6-5-5-5-5-8-------| Palm Mute The Start
   1 + 2 + 3 + 4 + 1 + 2 + 3 + 4 +

  Pre-Chorus 1
e|------------------|-------------|
B|------------------|-------------|
G|-----10-----------|-----10------|
D|-8---10---10---12-|-8---10---10-|
A|-8---8----7----12-|-8---8----7--|
E|-6--------8----10-|-6--------8--|x2

  Chorus
e|---------------|-----------|
B|---------------|-----------|
G|---------5---7-|---------5-|
D|-8---3---5---7-|-8---3---5-|
A|-8---3---3---5-|-8---3---3-|
E|-6---1---------|-6---1-----|

  Verse
e|-----------------------------------------------------------------|
B|-----------------------------------------------------------------|
G|-----------------------------------------------------------------|
D|-----------------------------------------------------------------|
A|-5-----5-5-7-----------------------------------------------------|
E|-----------------5---5---5-5---4---3-----3-3/8---3---3---3/8---9-|x4
   1 + 2 + 3 + 4 + 1 + 2 + 3 + 4 + 1 + 2 + 3 + 4 + 1 + 2 + 3 + 4 +


  Verse (Palm Mute until the end)
e|------------------------------------------------------------------|
B|------------------------------------------------------------------|
G|------------------------------------------------------------------|
D|-7-7-7-5---------------5---5-5-6-7-7-7-5-----------------8-7-8-10-|
A|-5-5-5-3-7-9-7-6-5-5-5-3-5-3-3-4-5-5-5-3-7-9-7-6-5-5-5-3-8-7-8-10-|
E|---------5-7-5-4-3-3-3---3---------------5-7-5-4-3-3-3-1-6-5-6-8--|
   1 + 2 + 3 + 4 + 1 + 2 + 3 + 4 + 1 + 2 + 3 + 4 + 1 + 2 + 3 + 4 +


  Pre-Chorus + Chorus
e|---------------|-----------|
B|---------------|-----------|
G|---------5---7-|---------5-|
D|-8---3---5---7-|-8---3---5-|
A|-8---3---3---5-|-8---3---3-|
E|-6---1---------|-6---1-----|


  Bridge
e|------|
B|------|
G|-5----|
D|-5----|
A|-3----|
E|------|


e|-----------------------|
B|-----------------------|
G|-7---7---7---7---7---5-|
D|-7---7---7---7---7---5-|  "We're Young We're Dumb and Having Fun"
A|-5---5---5---5---5---3-|
E|-----------------------|            
Submit corrections


        Forever Stuck In Our Youth  lessons Hard to play? Try these video lessons and learn fast Forever Stuck In Our Youth  lessons
        
↑ Back to top | Tablatures and chords for acoustic guitar and electric guitar, ukulele, drums are parodies/interpretations of the original songs. You may use it for private study, scholarship, research or language learning purposes only