» » »

Senses Fail - Family Tradition Tabs

Artists:  A B C D E F G H I J K L M N O P Q R S T U V W X Y Z # 

Family Tradition Tabs

(ver. 1) Click to play this song!
Senses Fail
 Rating:
4/5 (4 votes)

 Family Tradition lessons Tabs too difficult? Try these video lessons and learn fast
 
                -------------------------------------------------------------------------------
                             Family Traditon - Senses Fail
-------------------------------------------------------------------------------
                                    *UPDATED*

Tuning:Drop C Low to High CGCFAd

Presong Notes:  I've written this tab in Drop C however you can play this in drop D just 
all the notes down 2 frets.
*I will put a line between the different sections i.e verse intro
**lead on top and Rhythm on Bottom
***notes are at the bottom.
Intro

d|-----------------------------------------------------|
A|-----------------------------------------------------|
F|-11-1111----11-1111-xx--11b-11-1111----11-1111-xx-11-|
C|-x--x-x-xx--x--x-x--xx--x---x--x-x-xx--x--x-x--xx-x--|
G|-9--9-9-xx--9--9-9--xx--9b--9--9-9-xx--9--9-9--xx-9--|
C|-0--0-0-xx--0--0-0--xx--0---0--0-0-xx--0--0-0--xx-0--|

d|--------------17---17-----------------------------------------|
A|---------------------20--20-19--19----------------------------|
F|----19-----19---------------------19--19-18--18-19-19-19------|
C|-19-----19----------------------------------------------------|
G|--------------------------------------------------------------|
C|--------------------------------------------------------------|
 |*Delay on-See notes for settings
d|--------------------------------------------------------------|
A|--------------------------------------------------------------|
F|-7---7-7--7---7-7--7---7-7--7---7-7--7---7-7--7---7-7---------|
C|-0---0-0--0---0-0--0---0-0--0---0-0--0---0-0--0---0-0---------|
G|-0---0-0--0---0-0--0---0-0--0---0-0--0---0-0--0---0-0---------|
C|-0---0-0--0---0-0--0---0-0--0---0-0--0---0-0--0---0-0---------|
 P.M   * *      * *      * *      * *      * *      * *

d|--------------17---17---------------------17--17-----------------------------------|
A|----------------------20--20-19--19-------------20--20--19--19---------------------|
F|-19191918h19------------------------19--19--------------------19--19-18--18-19-19--|
C|-----------------------------------------------------------------------------------|
G|-----------------------------------------------------------------------------------|
C|-----------------------------------------------------------------------------------|
 |
d|-----------------------------------------------------------------------------------|
A|-----------------------------------------------------------------------------------|
F|-5---1111-11--1111-11--1111-11-11-7--7---7-7--7---7-7--7---7-7--7---7-7--7---7-7--7|
C|-5---9-9--9---9-9--9---9-9--9--9--7--0---0-0--0---0-0--0---0-0--0---0-0--0---0-0--0|
G|-5---9-9--9---9-9--9---9-9--9--9--5--0---0-0--0---0-0--0---0-0--0---0-0--0---0-0--0|
C|-5---9-9--9---9-9--9---9-9--9--9--5--0---0-0--0---0-0--0---0-0--0---0-0--0---0-0--0|
 P.M   * *      * *      * *     *         * *      * *      * *      * *

d|--------------17--17----------------|
A|--------------------20--20--19--19--|
F|-191919p18h19-----------------------|
C|------------------------------------|
G|------------------------------------|
C|------------------------------------|
 |
d|------------------------------------|
A|------------------------------------|
F|-7---7-7-----7---7-7--7---7-7--7----|
C|-0---0-0-----5---5-5--5---5-5--0----|
G|-0---0-0-----5---5-5--5---5-5--0----|
C|-0---0-0-----5---5-5--5---5-5--0----|
P.M    * *         * *      * *
____________________________________________________
Verse 1

d|------------------------------------------------------------|
A|------------------------------------------------------------|
F|--------------------------------------------7-7--7----------|
C|-xxxxxx--111111111111111--7-7-7-7-9-9-9-9---0-0--0----------|
G|-xxxxxx--9-9-9-9-9-9-9-9--5-5-5-5-5-5-5-5---0-0--0----------|
C|-xxxxxx--9-9-9-9-9-9-9-9--5-5-5-5-5-5-5-5---0-0--0----------|
 |P.M                                         * *
d|------------------------------------------------------------|
A|------------------------------------------------------------|
F|---------1111111111111111-7-7-7-7-7-11-9----7---------------|
C|-xxxxxx--x-x-x-x-x-x-x-x--x-x-x-x-x-x--x----x---------------|
G|-xxxxxx--9-9-9-9-9-9-9-9--5-5-5-5-5-9--7----5---------------|
C|-xxxxxx-----------------------------------------------------|


d|------------------------------------------------------------|
A|------------------------------------------------------------|
F|---------111111111111111--7-7-7-7-7-7-7-7-------9-----------|
C|-xxxxxx--9-9-9-9-9-9-9-9--5-5-5-5-5-5-5-5---5-5-7-----------|
G|-xxxxxx--9-9-9-9-9-9-9-9--5-5-5-5-5-5-5-5---5-5-7-----------|
C|-xxxxxx--9-9-9-9-9-9-9-9--5-5-5-5-5-5-5-5---5-5-7-----------|
 |P.M                                         * *
d|------------------------------------------------------------|
A|------------------------------------------------------------|
F|---------1111111111111111--7-7-7-7-7-7-7-11-----9-9----6----|
C|-xxxxxx--x-x-x-x-x-x-x-x---x-x-x-x-x-x-x-x------x-x----x----|
G|-xxxxxx--9-9-9-9-9-9-9-9---5-5-5-5-5-5-5-9------7-7----4----|
C|-xxxxxx-----------------------------------------------------|
 _______________________________________________________________
Chorus

d|-------------------------------------------------------------------|
A|-------------------------------------------------------------------|
F|-1111111111111111-7-7-7-7-7-7-7-7-7-7-7-7-7-7-7-7-9-9-9-9-9-9-9-9--|
C|-9-9-9-9-9-9-9-9--5-5-5-5-5-5-5-5-0-0-0-0-0-0-0-0-7-7-7-7-7-7-7-7--|x2
G|-9-9-9-9-9-9-9-9--5-5-5-5-5-5-5-5-0-0-0-0-0-0-0-0-7-7-7-7-7-7-7-7--|
C|-9-9-9-9-9-9-9-9--5-5-5-5-5-5-5-5-0-0-0-0-0-0-0-0-7-7-7-7-7-7-7-7--|
 |
d|-------------------------------------------------------------------|
A|-------------------------------------------------------------------|
F|-1111111111111111-7-7-7-4-5-7-4-5-7-7-7-7-7-7-7-7-6-6-6-6-6-6-6-6--|
C|-x-x-x-x-x-x-x-x--x-x-x-x-x-x-x-x-x-x-x-x-x-x-x-x-x-x-x-x-x-x-x-x--|x2
G|-9-9-9-9-9-9-9-9--5-5-5-2-3-5-2-3-5-5-5-5-5-5-5-5-4-4-4-4-4-4-4-4--|
C|-------------------------------------------------------------------|

_______________________________________________________________________
Preverse

d|--------------17---17-----------------------------------------|
A|---------------------20--20-19--19----------------------------|
F|-18-19--18h19---------------------19--19-18--18-19--19--------|
C|--------------------------------------------------------------|
G|--------------------------------------------------------------|
C|--------------------------------------------------------------|
 |*Delay on-See notes for settings
d|--------------------------------------------------------------|
A|--------------------------------------------------------------|
F|-7---7-7--7---7-7--7---7-7--7---7-7--7---7-7--7---7-7---------|
C|-0---0-0--0---0-0--0---0-0--0---0-0--0---0-0--0---0-0---------|
G|-0---0-0--0---0-0--0---0-0--0---0-0--0---0-0--0---0-0---------|
C|-0---0-0--0---0-0--0---0-0--0---0-0--0---0-0--0---0-0---------|
 P.M   * *      * *      * *      * *      * *      * *

d|--------------17---17-------------------|
A|----------------------20--20-19--19-----|
F|-19191918h19----------------------------|
C|----------------------------------------|
G|----------------------------------------|
C|----------------------------------------|
 |
d|----------------------------------------|
A|----------------------------------------|
F|-5---7-7--7---7-7--7---7-7--7---7-7--7--|
C|-5---5-5--5---5-5--5---5-5--5---5-5--0--|
G|-5---5-5--5---5-5--5---5-5--5---5-5--0--|
C|-5---5-5--5---5-5--5---5-5--5---5-5--0--|
 P.M   * *      * *      * *      * *
_______________________________________________
Verse 2
d|------------------------------------------------------------|
A|------------------------------------------------------------|
F|--------------------------------------------7-7--7----------|
C|-xxxxxx--111111111111111--7-7-7-7-7-7-7-7---0-0--0----------|
G|-xxxxxx--9-9-9-9-9-9-9-9--5-5-5-5-5-5-5-5---0-0--0----------|
C|-xxxxxx--9-9-9-9-9-9-9-9--5-5-5-5-5-5-5-5---0-0--0----------|
 |P.M                                         * *
d|------------------------------------------------------------|
A|------------------------------------------------------------|
F|---------1111111111111111-7-7-7-7-7-11-9----7---------------|
C|-xxxxxx--x-x-x-x-x-x-x-x--x-x-x-x-x-x--x----x---------------|
G|-xxxxxx--9-9-9-9-9-9-9-9--5-5-5-5-5-9--7----5---------------|
C|-xxxxxx-----------------------------------------------------|


d|------------------------------------------------------------|
A|------------------------------------------------------------|
F|---------111111111111111--7-7-7-7-7-7-7-7-------9-----------|
C|-xxxxxx--9-9-9-9-9-9-9-9--5-5-5-5-5-5-5-5---5-5-7-----------|
G|-xxxxxx--9-9-9-9-9-9-9-9--5-5-5-5-5-5-5-5---5-5-7-----------|
C|-xxxxxx--9-9-9-9-9-9-9-9--5-5-5-5-5-5-5-5---5-5-7-----------|
 |P.M                                         * *
d|------------------------------------------------------------|
A|------------------------------------------------------------|
F|---------1111111111111111--7-7-7-7-7-7-7-11-----9-9----6----|
C|-xxxxxx--x-x-x-x-x-x-x-x---x-x-x-x-x-x-x-x------x-x----x----|
G|-xxxxxx--9-9-9-9-9-9-9-9---5-5-5-5-5-5-5-9------7-7----4----|
C|-xxxxxx-----------------------------------------------------|
______________________________________________________________________
Chorus

d|-------------------------------------------------------------------|
A|-------------------------------------------------------------------|
F|-1111111111111111-7-7-7-7-7-7-7-7-7-7-7-7-7-7-7-7-9-9-9-9-9-9-9-9--|
C|-9-9-9-9-9-9-9-9--5-5-5-5-5-5-5-5-0-0-0-0-0-0-0-0-7-7-7-7-7-7-7-7--|x2
G|-9-9-9-9-9-9-9-9--5-5-5-5-5-5-5-5-0-0-0-0-0-0-0-0-7-7-7-7-7-7-7-7--|
C|-9-9-9-9-9-9-9-9--5-5-5-5-5-5-5-5-0-0-0-0-0-0-0-0-7-7-7-7-7-7-7-7--|
 |
d|-------------------------------------------------------------------|
A|-------------------------------------------------------------------|
F|-1111111111111111-7-7-7-4-5-7-4-5-7-7-7-7-7-7-7-7-6-6-6-6-6-6-6-6--|
C|-x-x-x-x-x-x-x-x--x-x-x-x-x-x-x-x-x-x-x-x-x-x-x-x-x-x-x-x-x-x-x-x--|x2
G|-9-9-9-9-9-9-9-9--5-5-5-2-3-5-2-3-5-5-5-5-5-5-5-5-4-4-4-4-4-4-4-4--|
C|-------------------------------------------------------------------|
____________________________________________________________
Breakdown

d|---------------------------------------------------|
A|---------------------------------------------------|
F|-7-7-7-7-7-7--9--9--11-11-9-9-9-9-9-9-11-11-12-12--|
C|-5-5-5-5-5-5--x--x--x--x--7-7-7-7-7-7--x--x--x--x--|
G|-5-5-5-5-5-5--7--7--9--9--7-7-7-7-7-7-9--9--10-10--|
C|-5-5-5-5-5-5--------------7-7-7-7-7-7--------------|
 |
d|---------------------------------------------------|
A|---------------------------------------------------|
F|-7-7-7-7-7-7--12-12-14-14--9-9-9-9-9-9-14-14-16-16-|
C|-5-5-5-5-5-5---x-x--x--x---7-7-7-7-7-7--x--x--x--x-|
G|-5-5-5-5-5-5--10-10-12-12--7-7-7-7-7-7-12-12-14-14-|
C|-5-5-5-5-5-5---------------7-7-7-7-7-7-------------|

 
d|---------------------------------------------------|
A|---------------------------------------------------|
F|-7-7-7-7-7-7--12-12-14-14--9-9-9-9-9-9-14-14-16-16-|
C|-5-5-5-5-5-5---x--x--x--x--7-7-7-7-7-7--x--x--x--x-|
G|-5-5-5-5-5-5--10-10-12-12--7-7-7-7-7-7-12-12-14-14-|
C|-5-5-5-5-5-5---------------7-7-7-7-7-7-------------|
 |
d|---------------------------------------------------|
A|---------------------------------------------------|
F|-7-7-7-7-7-7--16-16-18-18--9-9-9-9-9-9-14-14-19-19-|
C|-5-5-5-5-5-5---x--x--x--x--7-7-7-7-7-7--x--x--x--x-|
G|-5-5-5-5-5-5--14-14-16-16--7-7-7-7-7-7-16-16-17-17-|
C|-5-5-5-5-5-5---------------7-7-7-7-7-7-------------|

d|--------------------------------------------------------------------|
A|--------------------------------------------------------------------|
F|-11111111111111119-9-9-9-9-9-9-9-7-7-7-7-7-7-7-7-6-6-6-6-6-6-6-6----|
C|-x-x-x-x-x-x-x-x-x-x-x-x-x-x-x-x-x-x-x-x-x-x-x-x-x-x-x-x-x-x-x-x----|x2
G|-9-9-9-9-9-9-9-9-7-7-7-7-7-7-7-7-5-5-5-5-5-5-5-5-4-4-4-4-4-4-4-4----|
C|--------------------------------------------------------------------|

d|--------------------------------------------------------------------|
A|--------------------------------------------------------------------|
F|--------------------------------------------------------------------|
C|-0-4-5-0-4-5-0-4-5-0-4-5-0-4-5-0-4-5-0-4-0-4-5-7-5-4-0--------------|x2
G|-------------------------------------------------------4-5-7-5-4----|
C|--------------------------------------------------------------------|
________________________________________________________________________

Chorus

d|-------------------------------------------------------------------|
A|-------------------------------------------------------------------|
F|-1111111111111111-7-7-7-7-7-7-7-7-7-7-7-7-7-7-7-7-9-9-9-9-9-9-9-9--|
C|-9-9-9-9-9-9-9-9--5-5-5-5-5-5-5-5-0-0-0-0-0-0-0-0-7-7-7-7-7-7-7-7--|x2
G|-9-9-9-9-9-9-9-9--5-5-5-5-5-5-5-5-0-0-0-0-0-0-0-0-7-7-7-7-7-7-7-7--|
C|-9-9-9-9-9-9-9-9--5-5-5-5-5-5-5-5-0-0-0-0-0-0-0-0-7-7-7-7-7-7-7-7--|
 |
d|-------------------------------------------------------------------|
A|-------------------------------------------------------------------|
F|-1111111111111111-7-7-7-4-5-7-4-5-7-7-7-7-7-7-7-7-6-6-6-6-6-6-6-6--|
C|-x-x-x-x-x-x-x-x--x-x-x-x-x-x-x-x-x-x-x-x-x-x-x-x-x-x-x-x-x-x-x-x--|x2
G|-9-9-9-9-9-9-9-9--5-5-5-2-3-5-2-3-5-5-5-5-5-5-5-5-4-4-4-4-4-4-4-4--|
C|-------------------------------------------------------------------|

d|-------------------------------------------------------------------|
A|-------------------------------------------------------------------|
F|-1111111111111111-7-7-7-7-7-7-7-7-7-7-7-7-7-7-7-7-9-9-9-9-9-9-9-9--|
C|-9-9-9-9-9-9-9-9--5-5-5-5-5-5-5-5-0-0-0-0-0-0-0-0-7-7-7-7-7-7-7-7--|x2
G|-9-9-9-9-9-9-9-9--5-5-5-5-5-5-5-5-0-0-0-0-0-0-0-0-7-7-7-7-7-7-7-7--|
C|-9-9-9-9-9-9-9-9--5-5-5-5-5-5-5-5-0-0-0-0-0-0-0-0-7-7-7-7-7-7-7-7--|
 |
d|-------------------------------------------------------------------|
A|-------------------------------------------------------------------|
F|-1111111111111111-7-7-7-4-5-7-4-5-7-7-7-7-7-7-7-7-6-6-6-6-6-6-6-6--|
C|-x-x-x-x-x-x-x-x--x-x-x-x-x-x-x-x-x-x-x-x-x-x-x-x-x-x-x-x-x-x-x-x--|x2
G|-9-9-9-9-9-9-9-9--5-5-5-2-3-5-2-3-5-5-5-5-5-5-5-5-4-4-4-4-4-4-4-4--|
C|-------------------------------------------------------------------|
_________________________________________________________________________
Outro

d|--------------17---17-----------------------------------------|
A|---------------------20--20-19--19----------------------------|
F|-18-19--18h19---------------------19--19-18--18-19--19--------|
C|--------------------------------------------------------------|
G|--------------------------------------------------------------|
C|--------------------------------------------------------------|
 |*Delay on-See notes for settings
d|--------------------------------------------------------------|
A|--------------------------------------------------------------|
F|-7---7-7--7---7-7--7---7-7--7---7-7--7---7-7--7---7-7---------|
C|-0---0-0--0---0-0--0---0-0--0---0-0--0---0-0--0---0-0---------|
G|-0---0-0--0---0-0--0---0-0--0---0-0--0---0-0--0---0-0---------|
C|-0---0-0--0---0-0--0---0-0--0---0-0--0---0-0--0---0-0---------|
 P.M   * *      * *      * *      * *      * *      * *

d|--------------17---17-------------------|
A|----------------------20--20-19--19-----|
F|-19191918h19----------------------------|
C|----------------------------------------|
G|----------------------------------------|
C|----------------------------------------|
 |
d|----------------------------------------|
A|----------------------------------------|
F|-5---7-7--7---7-7--7---7-7--7---7-7--7--|
C|-5---5-5--5---5-5--5---5-5--5---5-5--0--|
G|-5---5-5--5---5-5--5---5-5--5---5-5--0--|
C|-5---5-5--5---5-5--5---5-5--5---5-5--0--|
 P.M   * *      * *      * *      * *

That's It

Notes:
1. Delay.  In the intro, pre-verse and outro the lead guitar uses a delay.
Here are the settings.  Because the delay I'm using isn't fully an*log I'll
Try my best at where the knobs go
Time:4.7
Repeats:1 or knob at 3.2
Level:7
Remember these are the knobs not times

I have updated the tab and it should be more correct.
leave a comment and I'll get to them as soon as I can.
Enjoy and Have fun.

One last note:
The | between 2 or more tabs means that they are played at the same time.

______Key_______
| /  slide up   |
| \  slide down |
| h  hammer-on  |
| p  pull-off   |
| ~  vibrato    |
| +  harmonic   |
| x  Mute note  |
-----------------
            
Submit corrections


        Family Tradition lessons Hard to play? Try these video lessons and learn fast Family Tradition lessons
        
↑ Back to top | Tablatures and chords for acoustic guitar and electric guitar, ukulele, drums are parodies/interpretations of the original songs. You may use it for private study, scholarship, research or language learning purposes only