» » »

Senses Fail - Choke On This Tabs

Artists:  A B C D E F G H I J K L M N O P Q R S T U V W X Y Z # 

Choke On This Tabs

(ver. 2) Click to play this song!
Senses Fail
 Rating:
4/5 (4 votes)

 Choke On This lessons Tabs too difficult? Try these video lessons and learn fast
 
                Guitarists: Dave and Garrett
Track Number 8
Tuning: Drop D

Hey Guys...
The strumming might be off but im sure when you listen to the song you will be able to figure it out...

Guitar 1 - Dave

Intro:
e|---------------------------------------------------------------|
B|---------------------------------------------------------------|
G|-------------------------------6666666666666--555555555555-----|
D|--8888888888--666--4444444444--xxxxxxxxxxxxx--xxxxxxxxxxxx-----|
A|--8888888888--666--4444444444--4444444444444--333333333333-----|
D|--8888888888--666--4444444444----------------------------------|

e|---------------------------------------|
B|---------------------------------------|
G|--10101010101010101010-----------------|
D|--8-8-8-8-8-8-8-8-8-8-666-4444444444---|
A|--8-8-8-8-8-8-8-8-8-8-666-4444444444---|
D|--8-8-8-8-8-8-8-8-8-8-666-4444444444---|

Small Break Here...

e|-------------------------------------------------------------|
B|-------------------------------------------------------------|
G|-6666--5555--6666--5555--6666--5555--6666--5555--------------|
D|-xxxx--xxxx--xxxx--xxxx--xxxx--xxxx--xxxx--xxxx--------------|
A|-4444--3333--4444--3333--4444--3333--4444--3333--------------|
D|-------------------------------------------------------------|

Pick Scr*pe

Verse:
e|-------------------------------------------------------------------------|
B|-------------------------------------------------------------------------|
G|---------------------------------------------------6---------------------|
D|---8888888888--666--4444444444--3333333333--444444-4-444444--------------|
A|---8888888888--666--4444444444--3333333333--444444-4-444444--------------|
D|---8888888888--666--4444444444--3333333333--444444-4-444444--------------|
PM   ..........  ...  ..........  ..........  ......   ......

(Note: Notice the no palm mute on the e|--- note)
                                      B|---
                                      G|-6-
                                      D|-4-
                                      A|-4-
                                      D|-4-

Verse Cont.:
e|-------------------------------------------------------------------------|
B|-------------------------------------------------------------------------|
G|-------------------------------------------------------------------------|
D|---8888888888--666--4444444444--3333333333--444444444444-----------------|
A|---8888888888--666--4444444444--3333333333--444444444444-----------------|
D|---8888888888--666--4444444444--3333333333--444444444444-----------------|
PM   ..........  ...  ..........  ..........  ........
(No PM last four notes.)


Pre-Chorus:
e|--------------------------------------------|
B|--------------------------------------------|
G|--------------------------------------------|
D|-33333333--88888888-66666/8-44444444444-----|
A|-33333333--88888888-66666/8-44444444444-----|
D|-33333333--88888888-66666/8-44444444444-----|

e|--------------------------------------------|
B|--------------------------------------------|
G|--------------------------------------------|
D|-33333333--88888888-66666/8-444444-666666---|
A|-33333333--88888888-66666/8-444444-666666---|
D|-33333333--88888888-66666/8-444444-666666---|


Chorus:
e|---------------------------------------------------------------|
B|---------------------------------------------------------------|
G|-------------------------------6666666666666--555555555555-----|
D|--8888888888--666--4444444444--xxxxxxxxxxxxx--xxxxxxxxxxxx-----|
A|--8888888888--666--4444444444--4444444444444--333333333333-----|
D|--8888888888--666--4444444444----------------------------------|

e|---------------------------------------|
B|---------------------------------------|
G|--10101010101010101010-----------------|
D|--8-8-8-8-8-8-8-8-8-8-666-4444444444---|
A|--8-8-8-8-8-8-8-8-8-8-666-4444444444---|
D|--8-8-8-8-8-8-8-8-8-8-666-4444444444---|

e|-------------------------------------------------------------|
B|-------------------------------------------------------------|
G|-6666--5555--6666--5555--6666--5555--6666--5555--------------|
D|-xxxx--xxxx--xxxx--xxxx--xxxx--xxxx--xxxx--xxxx--------------|
A|-4444--3333--4444--3333--4444--3333--4444--3333--------------|
D|-------------------------------------------------------------|

Pick Scr*pe


Verse:
e|-------------------------------------------------------------------------|
B|-------------------------------------------------------------------------|
G|---------------------------------------------------6---------------------|
D|---8888888888--666--4444444444--3333333333--444444-4-444444--------------|
A|---8888888888--666--4444444444--3333333333--444444-4-444444--------------|
D|---8888888888--666--4444444444--3333333333--444444-4-444444--------------|
PM   ..........  ...  ..........  ..........  ......   ......

Verse Cont.:
e|-------------------------------------------------------------------------|
B|-------------------------------------------------------------------------|
G|-------------------------------------------------------------------------|
D|---8888888888--666--4444444444--3333333333--444444444444-----------------|
A|---8888888888--666--4444444444--3333333333--444444444444-----------------|
D|---8888888888--666--4444444444--3333333333--444444444444-----------------|
PM   ..........  ...  ..........  ..........  ........
(No PM last four notes.)

Pre-Chorus:
e|--------------------------------------------|
B|--------------------------------------------|
G|--------------------------------------------|
D|-33333333--88888888-66666/8-44444444444-----|
A|-33333333--88888888-66666/8-44444444444-----|
D|-33333333--88888888-66666/8-44444444444-----|

e|--------------------------------------------|
B|--------------------------------------------|
G|--------------------------------------------|
D|-33333333--88888888-66666/8-444444-666666---|
A|-33333333--88888888-66666/8-444444-666666---|
D|-33333333--88888888-66666/8-444444-666666---|

Chorus:
e|---------------------------------------------------------------|
B|---------------------------------------------------------------|
G|-------------------------------6666666666666--555555555555-----|
D|--8888888888--666--4444444444--xxxxxxxxxxxxx--xxxxxxxxxxxx-----|
A|--8888888888--666--4444444444--4444444444444--333333333333-----|
D|--8888888888--666--4444444444----------------------------------|

e|---------------------------------------|
B|---------------------------------------|
G|--10101010101010101010-----------------|
D|--8-8-8-8-8-8-8-8-8-8-666-4444444444---|
A|--8-8-8-8-8-8-8-8-8-8-666-4444444444---|
D|--8-8-8-8-8-8-8-8-8-8-666-4444444444---|

e|-------------------------------------------------------------|
B|-------------------------------------------------------------|
G|-6666--5555--6666--5555--6666--5555--6666--5555--------------|
D|-xxxx--xxxx--xxxx--xxxx--xxxx--xxxx--xxxx--xxxx--------------|
A|-4444--3333--4444--3333--4444--3333--4444--3333--------------|
D|-------------------------------------------------------------|

Bridge:
e|-----------------------------------|
B|-----------------------------------|
G|--6~----6~----3~-------------------|
D|--6~----6~----3~----3~----4~--6~---|
A|--4~----3~----1~----3~----4~--6~---|
D|--------------------3~----4~--6~---|

Bridge Cont.:
e|-----------------------------------|
B|-----------------------------------|
G|--66----66----33-------------------|
D|--66----66----33----33----44--66---|
A|--44----33----11----33----44--66---|
D|--------------------33----44--66---|

Bridge Cont.:
e|-----------------------------------|
B|-----------------------------------|
G|--66----66----33-------------------|
D|--66----66----33----33----44--6~---|
A|--44----33----11----33----44--6~---|
D|--------------------33----44--6~---|

Chorus:
e|---------------------------------------------------------------|
B|---------------------------------------------------------------|
G|-------------------------------6666666666666--555555555555-----|
D|--8888888888--666--4444444444--xxxxxxxxxxxxx--xxxxxxxxxxxx-----|
A|--8888888888--666--4444444444--4444444444444--333333333333-----|
D|--8888888888--666--4444444444----------------------------------|

e|---------------------------------------|
B|---------------------------------------|
G|--10101010101010101010-----------------|
D|--8-8-8-8-8-8-8-8-8-8-666-4444444444---|
A|--8-8-8-8-8-8-8-8-8-8-666-4444444444---|
D|--8-8-8-8-8-8-8-8-8-8-666-4444444444---|

e|-------------------------------------------------------------|
B|-------------------------------------------------------------|
G|-6666--5555--6666--5555--6666--5555--6666--5555--------------|
D|-xxxx--xxxx--xxxx--xxxx--xxxx--xxxx--xxxx--xxxx--------------|
A|-4444--3333--4444--3333--4444--3333--4444--3333--------------|
D|-------------------------------------------------------------|

End On:
e|-----------|
B|-----------|
G|----6~~----|
D|----x~~----|
A|----4~~----|
D|-----------|


============================================================================

Guitar 2 - Garrett

Intro:
e|---------------------------------------------------------------|
B|---------------------------------------------------------------|
G|-------------------------------6666666666666--555555555555-----|
D|--8888888888--666--4444444444--xxxxxxxxxxxxx--xxxxxxxxxxxx-----|
A|--8888888888--666--4444444444--4444444444444--333333333333-----|
D|--8888888888--666--4444444444----------------------------------|

e|----------------------------------------|
B|----99999999-77777777-666666-444444-----|
G|----66666666-66666666-666666-444444-----|
D|----------------------------------------|
A|----------------------------------------|
D|----------------------------------------|

e|-------------------------|
B|---99999999-6666-7777----|     <---- Played by its self
G|---66666666-6666-6666----|           right before 
D|-------------------------|           guitar 1's pick scr*pe.
A|-------------------------|
D|-------------------------|

Verse:
e|-------------------------------------------------------------------------|
B|-------------------------------------------------------------------------|
G|---------------------------------------------------6---------------------|
D|---8888888888--666--4444444444--3333333333--444444-4-444444--------------|
A|---8888888888--666--4444444444--3333333333--444444-4-444444--------------|
D|---8888888888--666--4444444444--3333333333--444444-4-444444--------------|
PM   ..........  ...  ..........  ..........  ......   ......

(Note: Notice the no palm mute on the e|--- note)
                                      B|---
                                      G|-6-
                                      D|-4-
                                      A|-4-
                                      D|-4-

Verse Cont.:
e|-------------------------------------------------------------------------|
B|-------------------------------------------------------------------------|
G|-------------------------------------------------------------------------|
D|---8888888888--666--4444444444--3333333333--444444444444-----------------|
A|---8888888888--666--4444444444--3333333333--444444444444-----------------|
D|---8888888888--666--4444444444--3333333333--444444444444-----------------|
PM   ..........  ...  ..........  ..........  ........
(No PM last four notes.)

Pre-Chorus:
e|--------------------------------------------|
B|--------------------------------------------|
G|--------------------------------------------|
D|-33333333--88888888-66666/8-44444444444-----|
A|-33333333--88888888-66666/8-44444444444-----|
D|-33333333--88888888-66666/8-44444444444-----|

e|--------------------------------------------|
B|--------------------------------------------|
G|--------------------------------------------|
D|-33333333--88888888-66666/8-444444-666666---|
A|-33333333--88888888-66666/8-444444-666666---|
D|-33333333--88888888-66666/8-444444-666666---|

e|---------------------------------------------------|
B|---------------------------------------------------|
G|-1010101010101010--88888/10--66666666--888888------|
D|-x-x-x-x-x-x-x-x---xxxxx/x---xxxxxxxx--xxxxxx------|
A|-8-8-8-8-8-8-8-8---66666/8---44444444--666666------|
D|---------------------------------------------------|

Chorus:
e|-------------------------------------------------------------------|
B|-77-66----77-66----4h6-77-66----77-66----4h6-77-66----77-66----4h6-|
G|-------66-------66-----------66-------66-----------66-------66-----|
D|-------------------------------------------------------------------|
A|-------------------------------------------------------------------|
D|-------------------------------------------------------------------|

e|---------------------------------------------------------|
B|-77-66----77-66----4h6-99999999-77777777-666666-444444---|
G|-------66-------66-----66666666-66666666-666666-666666---|
D|---------------------------------------------------------|
A|---------------------------------------------------------|
D|---------------------------------------------------------|

e|-------------------------|
B|---99999999-6666-7777----|     <---- Played by its self
G|---66666666-6666-6666----|           right before 
D|-------------------------|           guitar 1's pick scr*pe.
A|-------------------------|
D|-------------------------|


Verse:
e|-------------------------------------------------------------------------|
B|-------------------------------------------------------------------------|
G|---------------------------------------------------6---------------------|
D|---8888888888--666--4444444444--3333333333--444444-4-444444--------------|
A|---8888888888--666--4444444444--3333333333--444444-4-444444--------------|
D|---8888888888--666--4444444444--3333333333--444444-4-444444--------------|
PM   ..........  ...  ..........  ..........  ......   ......

Verse Cont.:
e|-------------------------------------------------------------------------|
B|-------------------------------------------------------------------------|
G|-------------------------------------------------------------------------|
D|---8888888888--666--4444444444--3333333333--444444444444-----------------|
A|---8888888888--666--4444444444--3333333333--444444444444-----------------|
D|---8888888888--666--4444444444--3333333333--444444444444-----------------|
PM   ..........  ...  ..........  ..........  ........
(No PM last four notes.)


Pre-Chorus:
e|--------------------------------------------|
B|--------------------------------------------|
G|--------------------------------------------|
D|-33333333--88888888-66666/8-44444444444-----|
A|-33333333--88888888-66666/8-44444444444-----|
D|-33333333--88888888-66666/8-44444444444-----|

e|--------------------------------------------|
B|--------------------------------------------|
G|--------------------------------------------|
D|-33333333--88888888-66666/8-444444-666666---|
A|-33333333--88888888-66666/8-444444-666666---|
D|-33333333--88888888-66666/8-444444-666666---|

e|---------------------------------------------------|
B|---------------------------------------------------|
G|-1010101010101010--88888/10--66666666--888888------|
D|-x-x-x-x-x-x-x-x---xxxxx/x---xxxxxxxx--xxxxxx------|
A|-8-8-8-8-8-8-8-8---66666/8---44444444--666666------|
D|---------------------------------------------------|


Chorus:
e|-------------------------------------------------------------------|
B|-77-66----77-66----4h6-77-66----77-66----4h6-77-66----77-66----4h6-|
G|-------66-------66-----------66-------66-----------66-------66-----|
D|-------------------------------------------------------------------|
A|-------------------------------------------------------------------|
D|-------------------------------------------------------------------|

e|---------------------------------------------------------|
B|-77-66----77-66----4h6-99999999-77777777-666666-444444---|
G|-------66-------66-----66666666-66666666-666666-666666---|
D|---------------------------------------------------------|
A|---------------------------------------------------------|
D|---------------------------------------------------------|

Bridge:
e|----------------------------------------------------------------|
B|----------------------------------------------------------------|
G|--6666666666666666-6666666666666666-3333333333333333------------|
D|--6666666666666666-6666666666666666-3333333333333333-33333333---|
A|--4444444444444444-3333333333333333-1111111111111111-33333333---|
D|-----------------------------------------------------33333333---|
PM  ................ ................ ................ ........

Bridge Cont.:
e|-------------------------|
B|-------------------------|
G|-------------------------|
D|---44444444--66666666----|
A|---44444444--66666666----|
D|---44444444--66666666----|
PM   ........  ........

Bridge Cont.:
e|----------------------------------------------------------------|    
B|-----------------------6-----7------------------------6-----7---|    
G|-6---5h6-6---5---8---5-----5----6---5h6-6---5---8---5-----5-----|
D|---6-------6---6---6-----6--------6-------6---6---6-----6-------|    
A|----------------------------------------------------------------|    
D|----------------------------------------------------------------|    

e|------------------------------------------------------------------|    
B|-----------------------6-----7------------------------6-----------|
G|-6---5h6-6---5---8---5-----5----6---5h6-6---5---8---5-----5-6-----|
D|---6-------6---6---6-----6--------6-------6---6---6-----6-----6---|
A|------------------------------------------------------------------|    
D|------------------------------------------------------------------|    

e|---------------------------------------------------------------|
B|-----------------------777-88------------------------777-88----|
G|-6---5h6-6---5---8---5---------6---5h6-6---5---8---5-----------|
D|---6-------6---6---6-------------6-------6---6---6-------------|
A|---------------------------------------------------------------|
D|---------------------------------------------------------------|

e|---------------------------------------------------------------|
B|-----------------------777-88------------------------777-88----|
G|-6---5h6-6---5---8---5---------6---5h6-6---5---8---5-----------|
D|---6-------6---6---6-------------6-------6---6---6-------------|
A|---------------------------------------------------------------|
D|---------------------------------------------------------------|

Chorus:
e|-------------------------------------------------------------------|
B|-77-66----77-66----4h6-77-66----77-66----4h6-77-66----77-66----4h6-|
G|-------66-------66-----------66-------66-----------66-------66-----|
D|-------------------------------------------------------------------|
A|-------------------------------------------------------------------|
D|-------------------------------------------------------------------|

e|---------------------------------------------------------|
B|-77-66----77-66----4h6-99999999-77777777-666666-444444---|
G|-------66-------66-----66666666-66666666-666666-666666---|
D|---------------------------------------------------------|
A|---------------------------------------------------------|
D|---------------------------------------------------------|

End On:
e|-------------|
B|-------------|
G|-----6~~-----|
D|-----6~~-----|
A|-----4~~-----|
D|-------------|
            
Submit corrections


        Choke On This lessons Hard to play? Try these video lessons and learn fast Choke On This lessons
        
↑ Back to top | Tablatures and chords for acoustic guitar and electric guitar, ukulele, drums are parodies/interpretations of the original songs. You may use it for private study, scholarship, research or language learning purposes only