» » »

Senses Fail - Can't Be Saved Tabs

Artists:  A B C D E F G H I J K L M N O P Q R S T U V W X Y Z # 

Can't Be Saved Tabs

(ver. 2) Click to play this song!
Senses Fail
 Rating:
4/5 (4 votes)

 Can't Be Saved lessons Tabs too difficult? Try these video lessons and learn fast
 
                (Intro)
Tuning: Drop D

I dont have all of this song tabbed out...but the stuff i have sounds pretty 
than the other guy who posted...well here i go..

Intro Part 1:

Gtr. 1
e|--------|
B|---19---|
G|--------| Let this note ring out until 2nd part starts
D|--------|
A|--------|
D|--------|

Gtr. 2
e|-----------------------|
B|-----------------------|
G|-----------------------|
D|---0----5--------------| Let Each Note Ring
A|---0----5--------------|
D|---0----5----1/12\5----|


Intro Part 2:
Gtr. 1
e|-----------17--19--17-------         ---------------------------------|
B|---19--20--------------20--- <--(x3) ---19h20--19--19h20--19h20--19---|
G|----------------------------         ---------------------------------|
D|----------------------------         ---------------------------------|
A|----------------------------         ---------------------------------|
D|----------------------------         ---------------------------------|

(Note: that last XXXX19X that Gtr. 1 plays rings out through first verse)

Gtr. 2
e|-------------------------------- ----        --------------------|
B|------------------------------------         --------------------|
G|--------------------7-7-7---9-9-9---         --------------------| <--(x2)
D|---0--0-0-0-0-0-0---5-5-5---7-7-7--- <--(3x) ---0--0-0-0-0-0-0---|
A|---0--0-0-0-0-0-0---5-5-5---7-7-7---         ---0--0-0-0-0-0-0---|
D|---0--0-0-0-0-0-0---5-5-5---7-7-7---         ---0--0-0-0-0-0-0---|


Verse Part 1:

Gtr. 1
e|-----------------------------------------------------------------------|
B|-----------------------------------------------------------------------|
G|-----------------------------------------------------------------------|
D|--------------------5-5-5-5-5-5-5-5------------------------------------|
A|-------------------------------------5-5-5-5-5-5-5-5-5-5-5-5-5-5-5-5---|
D|---9-9-9-9-9-9-9-9-----------------------------------------------------|
PM   . . . . . . . .  . . . . . . . .  . . . . . . . . . . . . . . . .

Gtr. 2
e|-----------------------------------------------------------------------|
B|-----------------------------------------------------------------------|
G|-----------------------------------------------------------------------|
D|--------------------9-9-9-9-9-9-9-9--7-7-7-7-7-7-7-7-7-7-7-7-7-7-7-7---|
A|-----------------------------------------------------------------------|
D|---9-9-9-9-9-9-9-9-----------------------------------------------------|
PM   . . . . . . . .  . . . . . . . .  . . . . . . . . . . . . . . . .




Verse Part 2:


Gtr. 1
e|-----------------------------------------------------------------------|
B|-----------------------------------------------------------------------|
G|-----------------------------------------------------------------------|
D|--------------------5-5-5-5-5-5-5-5------------------------------------|
A|-------------------------------------5-5-5-5-5-5-5-5-5-5-5-5-5-5-5-5---|
D|---9-9-9-9-9-9-9-9-----------------------------------------------------|
PM   . . . . . . . .  . . . . . . . .  . . . . . . . . . . . . . . . .

Gtr. 2
e|-----------------------------------------------------------------------|
B|-----------------------------------------------------------------------|
G|-----------------------------------------------------6h7-6h7-/9~-------|
D|--------------------9-9-9-9-9-9-9-9--7-7-7-7-7-7-7-7-------------------|
A|-----------------------------------------------------------------------|
D|---9-9-9-9-9-9-9-9-----------------------------------------------------|
PM   . . . . . . . .  . . . . . . . .  . . . . . . . . 


Verse Part 3:

Gtr. 1,2
e|-------------------------------------------------------------------|
B|-------------------------------------------------------------------|
G|-------------------------------------------------------------------|
D|------------------------5------5-----------------------0------0----|
A|---9-9-9-9-9-9-9-9--5-5-5--5-5-5---0-0-0-0-0-0-0-0-0-0-0--0-0-0----|
D|---9-9-9-9-9-9-9-9--5-5-5--5-5-5---0-0-0-0-0-0-0-0-0-0-0--0-0-0----|
PM   . . . . . . . .  . .    . .     . . . . . . . . . .    . .


e|--------------------------------------------------------------------|
B|--------------------------------------------------------------------|
G|--------------------------------------------------------------------|
D|---9-------------------5------5-------------------0-0-0-0-0-0-0-0---|
A|---9--9-9-9-9-9-9--5-5-5--5-5-5---0-0-0-0-0-0-0-0-0-0-0-0-0-0-0-0---|
D|---9--9-9-9-9-9-9--5-5-5--5-5-5---0-0-0-0-0-0-0-0-0-0-0-0-0-0-0-0---|
PM      . . . . . .  . .    . .     . . . . . . . .
 

Chorus = Intro Part 2

Verse = Repeat Part 1

Verse Part 2:

Gtr. 1
e|-----------------------------------------------------------------------|
B|-----------------------------------------------------------------------|
G|-----------------------------------------------------------------------|
D|--------------------5-5-5-5-5-5-5-5------------------------------------|
A|-------------------------------------5-5-5-5-5-5-5-5-5-5-5-5-5-5-5-5---|
D|---9-9-9-9-9-9-9-9-----------------------------------------------------|
PM   . . . . . . . .  . . . . . . . .  . . . . . . . . . . . . . . . .


Gtr. 2
e|-----------------------------------------------------------------------|
B|-------------------------------------------------------------7*--------|
G|-----------------------------------------------------6h7-6h7-----------|
D|--------------------9-9-9-9-9-9-9-9--7-7-7-7-7-7-7-7-------------------|
A|-----------------------------------------------------------------------|
D|---9-9-9-9-9-9-9-9-----------------------------------------------------|
PM   . . . . . . . .  . . . . . . . .  . . . . . . . . 


Repeat Verse Part 3

Repeat Chorus


Bridge:
Gtr. 2 
e|-----------------------------------|
B|-----------------------------------|
G|-----------------------------------|
D|-----------------------------------|
A|-----------------------------------|
D|---0-4-5-0-4-5-0-4-5-0-4-5-5-4-0---|


Then Gtr. 1 enters:
e|----------------------------------------------------------------------|
B|----------------------------------------------------------------------|
G|----------------------------------------------------------------------|
D|---0-7-9-0-7-9-0-7-9-0-7-9-9-7-0-0-7-9-0-7-9-0-9-11-0-11-13-13-11-0---|
A|----------------------------------------------------------------------|
D|----------------------------------------------------------------------|

Thats all i have right now...
            
Submit corrections


        Can't Be Saved lessons Hard to play? Try these video lessons and learn fast Can't Be Saved lessons
        
↑ Back to top | Tablatures and chords for acoustic guitar and electric guitar, ukulele, drums are parodies/interpretations of the original songs. You may use it for private study, scholarship, research or language learning purposes only