» » »

Senses Fail - Bloody Romance Bass

Artists:  A B C D E F G H I J K L M N O P Q R S T U V W X Y Z # 

Bloody Romance Bass

(ver. 2) Click to play this song!
Senses Fail
 Rating:
4/5 (4 votes)

 Bloody Romance lessons Tabs too difficult? Try these video lessons and learn fast
 
                . = stop from ringing

Intro:
G|-----------------------------------------------------------------------------------|
D|-----------------------------------------------------------3p2--3p2--3p2--3p2-3/5--|
A|-------------------------1-1--1-1--0h1-1--0h1-1--3-3--3-3-----3----3----3----3-----|
D|--15\0-0--0-0--0-0--0-0------------------------------------------------------------|

Intro Cont'd: 2x
G|--------------------------------------------------------------.-.--.----|
D|------------------------------------------------------------------------|
A|----------------------1-1--1-1--1-1--1-1--3-3--3-3--3-3--3-3--3-3--3-3--|
D|--0-0--0-0--0-0--0-0----------------------------------------------------|


Verse:
G|--------.--------.--------.--------------|
D|-----------------------------------------|
A|--------------------1-1-1-1--1-1-1-1/3---|
D|--0-0-0-0--0-0-0-0-----------------------|


Pre Chorus:
G|----------------------------------------------------------------------------------|
D|----------------------------------------------------------------------------------|
A|----------------------1-1--1-1--1-1--1-1--3-3--3-3--3-3--3-3--3-3--3-3--3-3--3-3--|
D|--0-0--0-0--0-0--0-0--------------------------------------------------------------|

G|--------------------------------------------------------------.-.--.-.--|
D|------------------------------------------------------------------------|
A|----------------------1-1--1-1--1-1--1-1--3-3--3-3--3-3--3-3--3-3--3-3--|
D|--0-0--0-0--0-0--0-0----------------------------------------------------|


Chorus:
G|----------------------------------------------------------------------------------|
D|----------------------------------------------------------------------------------|
A|------------------------------------------1-1--1-1--1-1--1-1--1h3--1p0--1h3--1p0--|
D|--0-0--0-0--0-0--0-0--0-0--0-0--0-0--0-0------------------------------------------|

G|----------------------------------------------------------------------------------|
D|----------------------------------------------------------------------------------|
A|------------------------------------------1-1--1-1--1-1--1-1--1h3--1p0--1h3--1p0--|
D|--3-3--3-3--3-3--3-3--3-3--3-3--3-3--3-3------------------------------------------|


Bridge:
G|---|---------------------------------------------------------------------------------| 
D|---|---------------------------------------------------------------------------------|
A|---|---------------------1-1--1-1--1-1--1-1------------------------------------------|
D|-0-|-0-0--0-0--0-0--0-0----------------------3-3--3-3--3-3--3-3--2-2--2-2--2-2--2-2--|

G|---------------------------------------------------|
D|-----------2h3----------3p2------------------------|
A|---------------1-1--1-1----------------------------|
D|--0-0--0-0------------------3-3--3-3-----2-2--2-2--|


End on
G|---|
D|---|
A|---|
D|-0-|
            
Submit corrections


        Bloody Romance lessons Hard to play? Try these video lessons and learn fast Bloody Romance lessons
        
↑ Back to top | Tablatures and chords for acoustic guitar and electric guitar, ukulele, drums are parodies/interpretations of the original songs. You may use it for private study, scholarship, research or language learning purposes only