» » »

Senses Fail - 187 Tabs

Artists:  A B C D E F G H I J K L M N O P Q R S T U V W X Y Z # 

187 Tabs

(ver. 1) Click to play this song!
Senses Fail
 Rating:
3.4/5 (10 votes)

 187 lessons Tabs too difficult? Try these video lessons and learn fast
 
                Senses Fail - 187

this is a great song, and fairly easy to play. drop d tuning (EBGDAD).

key

/ - slide up
\ - slide down
x - left hand mute
. - palm mute
h - hammer on
p - pull off

-------------------------------------------------------------------------------
Guitar 1
-------------------------------------------------------------------------------

intro

E|----------0---------------0---------------0----------------0--------|
B|------3-----3---3-----3-----3----------3-----3---3-----3-----3---3--|
G|--2-2---2-----2---4-4---4-----2h4--0-0---0-----0---0-0---0-----0----|
D|--------------------------------------------------------------------|
A|--------------------------------------------------------------------| (x2)
D|--------------------------------------------------------------------|

verse

E|----------0---------------0---------------0----------------0--------|
B|------3-----3---3-----3-----3----------3-----3---3-----3-----3---3--|
G|--2-2---2-----2---4-4---4-----2h4--0-0---0-----0---0-0---0-----0----|
D|--------------------------------------------------------------------|
A|--------------------------------------------------------------------| (x12)
D|--------------------------------------------------------------------|

E|------------------------------------------|
B|------------------------------------------|
G|------------------------------------------|
D|--00000000-999999-7-9-55555555-55-5-55-5--|
A|--00000000-999999-7-9-55555555-55-5-55-5--| (x1)
D|--00000000-999999-7-9-55555555-55-5-55-5--|
     ....... ...... . . ........ ..   ..

E|------------------------------------------|
B|------------------------------------------|
G|------------------------------------------|
D|--0-000000-999999-7-9-55555555-55-5-55-5--|
A|--0-000000-999999-7-9-55555555-55-5-55-5--| (x2)
D|--0-000000-999999-7-9-55555555-55-5-55-5--|
      ...... ...... . . ........ ..   ..

E|----------------------------------------|
B|----------------------------------------|
G|----------------------------------------|
D|--0-000000-999999-7-9-55555555-5-5-5-5--|
A|--0-000000-999999-7-9-55555555-5-5-5-5--| (x1)
D|--0-000000-999999-7-9-55555555-5-5-5-5--|
      ...... ...... . . ........

chorus

E|---------------------------------------|
B|---------------------------------------|
G|---------------------------------------|
D|--99999999-55555555-00000000-44444444--|
A|--99999999-55555555-00000000-44444444--| (x2)
D|--99999999-55555555-00000000-44444444--|

verse

E|----------0---------------0---------------0----------------0--------|
B|------3-----3---3-----3-----3----------3-----3---3-----3-----3---3--|
G|--2-2---2-----2---4-4---4-----2h4--0-0---0-----0---0-0---0-----0----|
D|--------------------------------------------------------------------|
A|--------------------------------------------------------------------| (x1)
D|--------------------------------------------------------------------|

E|-------------------------|
B|-------------------------|
G|-------------------------|
D|--00000000-9999-9----9\--|
A|--00000000-9999-9----9\--| (x1)
D|--00000000-9999-9----9\--|
     ....... ....

E|------------------------------------------|
B|------------------------------------------|
G|------------------------------------------|
D|--0-000000-999999-7-9-55555555-55-5-55-5--|
A|--0-000000-999999-7-9-55555555-55-5-55-5--| (x1)
D|--0-000000-999999-7-9-55555555-55-5-55-5--|
      ...... ...... . . ........ ..   ..

E|----------0---------------0---------------0----------------0--------|
B|------3-----3---3-----3-----3----------3-----3---3-----3-----3---3--|
G|--2-2---2-----2---4-4---4-----2h4--0-0---0-----0---0-0---0-----0----|
D|--------------------------------------------------------------------|
A|--------------------------------------------------------------------| (x2)
D|--------------------------------------------------------------------|
    . .  .      .   . .   .    . .   . .   .     .   . .   .     . 

chorus

E|---------------------------------------|
B|---------------------------------------|
G|---------------------------------------|
D|--99999999-55555555-00000000-44444444--|
A|--99999999-55555555-00000000-44444444--| (x2)
D|--99999999-55555555-00000000-44444444--|

E|---------------------|
B|---------------------|
G|---------------------|
D|--44444444-44444x4x--|
A|--44444444-44444x4x--| (x1)
D|--44444444-44444x4x--|
    ........ ....

outro

E|----------------------------------------|
B|----------------------------------------|
G|----------------------------------------|
D|--99999999-5555555---00000000-44444444--|
A|--99999999-5555555---00000000-44444444--| (x4)
D|--99999999-5555555---00000000-44444444--|

E|---------------------------------------|
B|---------------------------------------|
G|---------------------------------------|
D|--99999999-55555555-00000000-44444444--|
A|--99999999-55555555-00000000-44444444--| (x2)
D|--99999999-55555555-00000000-44444444--|

E|------------------------------------------------|
B|------------------------------------------------|
G|------------------------------------------------|
D|--9~---99-9-9-9--99-9-9-9--99-9-9-9--99-9-9-9~--|
A|--9~---99-9-9-9--99-9-9-9--99-9-9-9--99-9-9-9~--| (x1)
D|--9~---99-9-9-9--99-9-9-9--99-9-9-9--99-9-9-9~--|
         .. . . .  .. . . .  .. . . .  .. . . 


-------------------------------------------------------------------------------
Guitar 2
-------------------------------------------------------------------------------

verse

E|--12--12--12--12--10--10--10--9h10-9--9--9--9--9--9--9--9----|
B|----10--10--10--10--10--10--10------10-10-10-10-10-10-10-10--|
G|-------------------------------------------------------------|
D|-------------------------------------------------------------|
A|-------------------------------------------------------------| (x8)
D|-------------------------------------------------------------|

E|------------------------------------------|
B|------------------------------------------|
G|------------------------------------------|
D|--00000000-999999-7-9-55555555-55-5-55-5--|
A|--00000000-999999-7-9-55555555-55-5-55-5--| (x1)
D|--00000000-999999-7-9-55555555-55-5-55-5--|
     ....... ...... . . ........ ..   ..

E|------------------------------------------|
B|------------------------------------------|
G|------------------------------------------|
D|--0-000000-999999-7-9-55555555-55-5-55-5--|
A|--0-000000-999999-7-9-55555555-55-5-55-5--| (x2)
D|--0-000000-999999-7-9-55555555-55-5-55-5--|
      ...... ...... . . ........ ..   ..

E|----------------------------------------|
B|----------------------------------------|
G|----------------------------------------|
D|--0-000000-999999-7-9-55555555-5-5-5-5--|
A|--0-000000-999999-7-9-55555555-5-5-5-5--| (x1)
D|--0-000000-999999-7-9-55555555-5-5-5-5--|
      ...... ...... . . ........

chorus

E|--------------------------------------------------------------------|
B|--------------------------------------------------------------------|
G|--11-------7-------7777-9999-11111111-12121212--6666-7777-66666666--|
D|---x-(x16)-x-(x16)-xxxx-xxxx--x-x-x-x--x-x-x-x--xxxx-xxxx-xxxxxxxx--| (x2)
A|---9-------5-------5555-9999--9-9-9-9-10101010--4444-5555-44444444--|
D|--------------------------------------------------------------------|

verse

E|-------------------------|
B|-------------------------|
G|-------------------------|
D|--00000000-9999-9----9\--|
A|--00000000-9999-9----9\--| (x1)
D|--00000000-9999-9----9\--|
     ....... ....

E|------------------------------------------|
B|------------------------------------------|
G|------------------------------------------|
D|--00000000-999999-7-9-55555555-55-5-55-5--|
A|--00000000-999999-7-9-55555555-55-5-55-5--| (x1)
D|--00000000-999999-7-9-55555555-55-5-55-5--|
     ....... ...... . . ........ ..   ..

E|------------------------------------------|
B|------------------------------------------|
G|------------------------------------------|
D|--0-000000-999999-7-9-55555555-55-5-55-5--|
A|--0-000000-999999-7-9-55555555-55-5-55-5--| (x2)
D|--0-000000-999999-7-9-55555555-55-5-55-5--|
      ...... ...... . . ........ ..   ..

chorus

E|--------------------------------------------------------------------|
B|--------------------------------------------------------------------|
G|--11-------7-------7777-9999-11111111-12121212--6666-7777-66666666--|
D|---x-(x16)-x-(x16)-xxxx-xxxx--x-x-x-x--x-x-x-x--xxxx-xxxx-xxxxxxxx--| (x2)
A|---9-------5-------5555-9999--9-9-9-9-10101010--4444-5555-44444444--|
D|--------------------------------------------------------------------|

E|---------------------|
B|---------------------|
G|---------------------|
D|--44444444-44444x4x--|
A|--44444444-44444x4x--| (x1)
D|--44444444-44444x4x--|
    ........ ....

outro

E|---------------------------------------------------------------------|
B|---------------------------------------------------------------------|
G|--11-------7--------7777-9999-11111111-12121212--6666-7777-66666666--|
D|---x-(x16)-x-(x11)--xxxx-xxxx--x-x-x-x--x-x-x-x--xxxx-xxxx-xxxxxxxx--| (x2)
A|---9-------5--------5555-9999--9-9-9-9-10101010--4444-5555-44444444--|
D|---------------------------------------------------------------------|

E|-------------------------------------------------------|
B|-------------------------------------------------------|
G|--1111111111111111-12121212-14141414--66666666-7777-9--|
D|---x-x-x-x-x-x-x-x--x-x-x-x--x-x-x-x--xxxxxxxx-xxxx-x--|
A|---9-9-9-9-9-9-9-9-10101010-12121212--44444444-5555-7--| (x1)
D|-------------------------------------------------------|

E|---------------------------------------------------|
B|---------------------------------------------------|
G|--7777-9999-11111111-12121212--6666-7777-66666666--|
D|--xxxx-xxxx--x-x-x-x--x-x-x-x--xxxx-xxxx-xxxxxxxx--| (x1)
A|--5555-9999--9-9-9-9-10101010--4444-5555-44444444--|
D|---------------------------------------------------|

E|-------------------------------------------------------|
B|-------------------------------------------------------|
G|--1111111111111111-12121212-14141414--66666666-7777-9--|
D|---x-x-x-x-x-x-x-x--x-x-x-x--x-x-x-x--xxxxxxxx-xxxx-x--|
A|---9-9-9-9-9-9-9-9-10101010-12121212--44444444-5555-7--| (x1)
D|-------------------------------------------------------|

E|---------------------------------------------------|
B|---------------------------------------------------|
G|--7777-9999-11111111-12121212--6666-7777-66666666--|
D|--xxxx-xxxx--x-x-x-x--x-x-x-x--xxxx-xxxx-xxxxxxxx--| (x1)
A|--5555-9999--9-9-9-9-10101010--4444-5555-44444444--|
D|---------------------------------------------------|

E|---------------------------------------------------------|
B|---------------------------------------------------------|
G|--1414141414141414-12121212-11111111-9999-7777-77777777--|
D|---x-x-x-x-x-x-x-x--x-x-x-x--x-x-x-x-xxxx-xxxx-xxxxxxxx--|
A|--1212121212121212-10101010--9-9-9-9-7777-5555-55555555--| (x4)
D|---------------------------------------------------------|

E|------------------|
B|------------------|
G|--11------12------|
D|---x-(x8)--x-(x8)-|
A|---9------10------| (x4)
D|------------------|

end on

E|-------|
B|-------|
G|--11~--|
D|---x~--|
A|---9~--| (x1)
D|-------|


there you go... if you have any comments or questions you can e-mail me at
            
Submit corrections


        187 lessons Hard to play? Try these video lessons and learn fast 187 lessons
        
↑ Back to top | Tablatures and chords for acoustic guitar and electric guitar, ukulele, drums are parodies/interpretations of the original songs. You may use it for private study, scholarship, research or language learning purposes only