Home » S » Selena Gomez »

Selena Gomez - It Aint Me Tabs

Artists:  A B C D E F G H I J K L M N O P Q R S T U V W X Y Z # 

It Aint Me Tabs

(ver. 1) Click to play this song!
Selena Gomez
[Intro]
e|--------------|--------------|--0--------0--|----------------|
B|---0--------0-|--3--------3--|--------------|--3--------3----|
G|---0--0-------|--0--0--------|--0--0--------|--0--0----------|
D|--------------|--------------|--------------|----------------|
A|--------------|--------------|--3-----3-----|----------------|
E|---0-----0----|--3-----3-----|--------------|--3-----3-------|

e|---0--------0-|--------------|--2--------2--|--3p-2p--0--2h--|
B|--------------|--3--------3--|--------------|----------------|
G|---0--0-------|--0--0--------|--2--2--------|----------------|
D|--------------|--------------|--0-----0-----|----------------|
A|---3-----3----|--------------|--------------|----------------|
E|--------------|--3-----3-----|--------------|----------------|

[Verse]
e|--------------|--------------|--0--------0--|----------------|
B|---0--------0-|--3--------3--|--------------|--3--------3----|
G|---0--0-------|--0--0--------|--0--0--------|--0--0----------|
D|--------------|--------------|--------------|----------------|
A|--------------|--------------|--3-----3-----|----------------|
E|---0-----0----|--3-----3-----|--------------|--3-----3-------|
  I had a dream we were sipping whiskey neat 

e|---0--------0-|--------------|--2--------2--|--3p-2p--0--2h--|
B|--------------|--3--------3--|--------------|----------------|
G|---0--0-------|--0--0--------|--2--2--------|----------------|
D|--------------|--------------|--0-----0-----|----------------|
A|---3-----3----|--------------|--------------|----------------|
E|--------------|--3-----3-----|--------------|----------------|
   highest floor the bowery   nowhere's high enough

e|--------------|--------------|--0--------0--|----------------|
B|---0--------0-|--3--------3--|--------------|--3--------3----|
G|---0--0-------|--0--0--------|--0--0--------|--0--0----------|
D|--------------|--------------|--------------|----------------|
A|--------------|--------------|--3-----3-----|----------------|
E|---0-----0----|--3-----3-----|--------------|--3-----3-------|
  Somewhere along the lines We stopped seeing eye to eye You were

e|---0--------0-|--------------|--2--------2--|--3p-2p--0--2h--|
B|--------------|--3--------3--|--------------|----------------|
G|---0--0-------|--0--0--------|--2--2--------|----------------|
D|--------------|--------------|--0-----0-----|----------------|
A|---3-----3----|--------------|--------------|----------------|
E|--------------|--3-----3-----|--------------|----------------|
  staying out all night and I   Had enough     No, I

[Pre-Chorus]
e|--------------|--------------|--0--------0--|----------------|
B|---0--------0-|--3--------3--|--------------|--3--------3----|
G|---0--0-------|--0--0--------|--0--0--------|--0--0----------|
D|--------------|--------------|--------------|----------------|
A|--------------|--------------|--3-----3-----|----------------|
E|---0-----0----|--3-----3-----|--------------|--3-----3-------|
  don't wanna know Where you been or where you're goin'  But I

e|---0--------0-|--------------|--2--------2--|----------------|
B|--------------|--3--------3--|--------------|----------------|
G|---0--0-------|--0--0--------|--2--2--------|----------------|
D|--------------|--------------|--0-----0-----|----------------|
A|---3-----3----|--------------|--------------|----------------|
E|--------------|--3-----3-----|--------------|----------------|
  know I won't be home And you'll be on your own   Who's gonna

[Chorus]
e|---------|---------|----2----|---------|
B|----1----|----0----|----3----|---------|
G|----0----|----0----|----2----|---------|
D|----2----|----0----|----0----|---------|
A|----3----|---------|---------|---------|
E|---------|----3----|---------|---------|
  Walk you Through the dark side of the morning?  Who's gonna

e|---------|---------|---------|---------|
B|----1----|----0----|----3----|---------|
G|----0----|----0----|----2----|---------|
D|----2----|----0----|----0----|---------|
A|----3----|---------|---------|---------|
E|---------|----3----|---------|---------|
  Rock you When the sun won't let you sleep? Who's waking

e|---------|---------|---2--0--|---------|
B|----1----|----0----|---3--3--|----0----|
G|----0----|----0----|---2--2--|----0----|
D|----2----|----0----|---0--0--|----2----|
A|----3----|---------|---------|----2----|
E|---------|----3----|---------|---------|
  up to drive you home When you're drunk and all alone? Who's gonna

e|---------|---------|----2----|---------|
B|----1----|----0----|----3----|---------|
G|----0----|----0----|----2----|---------|
D|----2----|----0----|----0----|---------|
A|----3----|---------|---------|---------|
E|---------|----3----|---------|---------|
  Walk you Through the dark side of the morning?  It ain't me

[Drop]
e|---------|---------|---------|-------------|
B|------0--|------3--|---3-----|---1p-0------|
G|---0--0--|---0--0--|---2--2--|---0----0----|
D|---2--2--|---0--0--|---0--0--|---2----2----|
A|---------|---------|------0--|---3----3----|
E|---0--0--|---3--3--|---------|-------------|
  Ow-ow, ah-ah the Bowery, ow-ow, ah-ah whiskey neat

e|---------|---------|---------|-------------|
B|------0--|------3--|---3-----|---3---------|
G|---0--0--|---0--0--|---2--2--|---2--2------|
D|---2--2--|---0--0--|---0--0--|---0--0------|
A|---------|---------|------0--|------0------|
E|---0--0--|---3--3--|---------|-------------|
  Grateful, I'm so, grateful, I (it ain't me)

e|---------|---------|---------|-------------|
B|------1--|------3--|---0-----|---3---------|
G|---0--0--|---0--0--|---0--0--|---2--2------|
D|---2--2--|---0--0--|---2--2--|---0--0------|
A|---3--3--|---------|---------|------0------|
E|---------|---3--3--|---0--0--|-------------|
  Ow-ow, ah-ah the Bowery, ow-ow, ah-ah whiskey neat

e|---------|---------|---------|-------------|
B|------1--|------3--|---3-----|-------------|
G|---0--0--|---0--0--|---2--2--|-------------|
D|---2--2--|---0--0--|---0--0--|-------------|
A|---3--3--|---------|------0--|-------------|
E|---------|---3--3--|---------|-------------|
  Grateful, I'm so, grateful, I (it ain't me)

e|----------|----------|----------|--------------|
B|------0---|------3---|---3------|---1p-0-------|
G|---0--0---|---0--0---|---2--2---|---0----0-----|
D|---2--2-x-|---0--0-x-|---0--0-x-|---2----2-x---|
A|--------x-|--------x-|------0-x-|---3----3-x---|
E|---0--0-x-|---3--3-x-|--------x-|----------x---|
  Ow-ow, the Bowery, ow-ow, the whiskey neat

e|----------|----------|----------|--------------|
B|------0---|------3---|---3------|---3----------|
G|---0--0---|---0--0---|---2--2---|---2--2-------|
D|---2--2-x-|---0--0-x-|---0--0-x-|---0--0---x---|
A|--------x-|--------x-|------0-x-|------0---x---|
E|---0--0-x-|---3--3-x-|--------x-|----------x---|
  Grateful, I'm so, grateful, I (it ain't me) 

e|----------|----------|----------|--------------|
B|------1---|------3---|---0------|---3----------|
G|---0--0---|---0--0---|---0--0---|---2--2-------|
D|---2--2-x-|---0--0-x-|---2--2-x-|---0--0-x-----|
A|---3--3-x-|--------x-|--------x-|------0-x-----|
E|--------x-|---3--3-x-|---0--0-x-|--------x-----|
  Ow-ow, the Bowery, ow-ow, the whiskey neat

e|----------|----------|----------|--------------|
B|------1---|------3---|---3------|---3----------|
G|---0--0---|---0--0---|---2--2---|---2--2-------|
D|---2--2-x-|---0--0-x-|---0--0-x-|---0--0-x-----|
A|---3--3-x-|--------x-|------0-x-|------0-x-----|
E|--------x-|---3--3-x-|--------x-|--------x-----|
  Grateful, I'm so, grateful, I (it ain't me)


e|--------------|--------------|
B|---0--------0-|--3--------3--|
G|---0--0-------|--0--0--------|
D|--------------|--------------|
A|--------------|--------------|
E|---0-----0----|--3-----3-----|

[Verse]
e|--------------|--------------|--0--------0--|----------------|
B|---0--------0-|--3--------3--|--------------|--3--------3----|
G|---0--0-------|--0--0--------|--0--0--------|--0--0----------|
D|--------------|--------------|--------------|----------------|
A|--------------|--------------|--3-----3-----|----------------|
E|---0-----0----|--3-----3-----|--------------|--3-----3-------|
  I had a dream we were back to seventeen      Summer 

e|---0--------0-|--------------|--2--------2--|--3p-2p--0--2h--|
B|--------------|--3--------3--|--------------|----------------|
G|---0--0-------|--0--0--------|--2--2--------|----------------|
D|--------------|--------------|--0-----0-----|----------------|
A|---3-----3----|--------------|--------------|----------------|
E|--------------|--3-----3-----|--------------|----------------|
   nights and the liberties     Never growing up

e|--------------|--------------|--0--------0--|----------------|
B|---0--------0-|--3--------3--|--------------|--3--------3----|
G|---0--0-------|--0--0--------|--0--0--------|--0--0----------|
D|--------------|--------------|--------------|----------------|
A|--------------|--------------|--3-----3-----|----------------|
E|---0-----0----|--3-----3-----|--------------|--3-----3-------|
  I'll take with me The polaroids and the memories But you

e|---0--------0-|--------------|--2--------2--|--3p-2p--0--2h--|
B|--------------|--3--------3--|--------------|----------------|
G|---0--0-------|--0--0--------|--2--2--------|----------------|
D|--------------|--------------|--0-----0-----|----------------|
A|---3-----3----|--------------|--------------|----------------|
E|--------------|--3-----3-----|--------------|----------------|
  know I'm gonna leave Behind the worst of us   Who's gonna

[Chorus]
e|---------|---------|----2----|---------|
B|----1----|----0----|----3----|---------|
G|----0----|----0----|----2----|---------|
D|----2----|----0----|----0----|---------|
A|----3----|---------|---------|---------|
E|---------|----3----|---------|---------|
  Walk you Through the dark side of the morning?  Who's gonna

e|---------|---------|---------|---------|
B|----1----|----0----|----3----|---------|
G|----0----|----0----|----2----|---------|
D|----2----|----0----|----0----|---------|
A|----3----|---------|---------|---------|
E|---------|----3----|---------|---------|
  Rock you When the sun won't let you sleep? Who's waking

e|---------|---------|---2--0--|---------|
B|----1----|----0----|---3--3--|----0----|
G|----0----|----0----|---2--2--|----0----|
D|----2----|----0----|---0--0--|----2----|
A|----3----|---------|---------|----2----|
E|---------|----3----|---------|---------|
  up to drive you home When you're drunk and all alone? Who's gonna

e|---------|---------|----2----|---------|
B|----1----|----0----|----3----|---------|
G|----0----|----0----|----2----|---------|
D|----2----|----0----|----0----|---------|
A|----3----|---------|---------|---------|
E|---------|----3----|---------|---------|
  Walk you Through the dark side of the morning? It ain't

[Drop]
e|---------|---------|----2----|---------|
B|----1----|----0----|----3----|---------|
G|----0----|----0----|----2----|---------|
D|----2----|----0----|----0----|---------|
A|----3----|---------|---------|---------|
E|---------|----3----|---------|---------|
  Me, no, no,                   It ain't

e|---------|---------|---------|---------|
B|----1----|----0----|----3----|---------|
G|----0----|----0----|----2----|---------|
D|----2----|----0----|----0----|---------|
A|----3----|---------|---------|---------|
E|---------|----3----|---------|---------|
  Me, no, no,                   It ain't

e|---------|---------|---2--0--|---------|
B|----1----|----0----|---3--3--|----0----|
G|----0----|----0----|---2--2--|----0----|
D|----2----|----0----|---0--0--|----2----|
A|----3----|---------|---------|----2----|
E|---------|----3----|---------|---------|
  Me, no, no,                     Who's gonna

e|---------|---------|----2----|---------|
B|----1----|----0----|----3----|---------|
G|----0----|----0----|----2----|---------|
D|----2----|----0----|----0----|---------|
A|----3----|---------|---------|---------|
E|---------|----3----|---------|---------|
  walk you through the dark side of the morning      It ain't me

e|---------|---------|---------|-------------|
B|------0--|------3--|---3-----|---1p-0------|
G|---0--0--|---0--0--|---2--2--|---0----0----|
D|---2--2--|---0--0--|---0--0--|---2----2----|
A|---------|---------|------0--|---3----3----|
E|---0--0--|---3--3--|---------|-------------|
  Ow-ow, ah-ah the Bowery, ow-ow, ah-ah whiskey neat

e|---------|---------|---------|-------------|
B|------0--|------3--|---3-----|---3---------|
G|---0--0--|---0--0--|---2--2--|---2--2------|
D|---2--2--|---0--0--|---0--0--|---0--0------|
A|---------|---------|------0--|------0------|
E|---0--0--|---3--3--|---------|-------------|
  Grateful, I'm so, grateful, I (it ain't me)

e|---------|---------|---------|-------------|
B|------1--|------3--|---0-----|---3---------|
G|---0--0--|---0--0--|---0--0--|---2--2------|
D|---2--2--|---0--0--|---2--2--|---0--0------|
A|---3--3--|---------|---------|------0------|
E|---------|---3--3--|---0--0--|-------------|
  Ow-ow, ah-ah the Bowery, ow-ow, ah-ah whiskey neat

e|---------|---------|---------|-------------|
B|------1--|------3--|---3-----|-------------|
G|---0--0--|---0--0--|---2--2--|-------------|
D|---2--2--|---0--0--|---0--0--|-------------|
A|---3--3--|---------|------0--|-------------|
E|---------|---3--3--|---------|-------------|
  Grateful, I'm so, grateful, I (it ain't me)

e|----------|----------|----------|--------------|
B|------0---|------3---|---3------|---1p-0-------|
G|---0--0---|---0--0---|---2--2---|---0----0-----|
D|---2--2-x-|---0--0-x-|---0--0-x-|---2----2-x---|
A|--------x-|--------x-|------0-x-|---3----3-x---|
E|---0--0-x-|---3--3-x-|--------x-|----------x---|
  Ow-ow, the Bowery, ow-ow, the whiskey neat

e|----------|----------|----------|--------------|
B|------0---|------3---|---3------|---3----------|
G|---0--0---|---0--0---|---2--2---|---2--2-------|
D|---2--2-x-|---0--0-x-|---0--0-x-|---0--0---x---|
A|--------x-|--------x-|------0-x-|------0---x---|
E|---0--0-x-|---3--3-x-|--------x-|----------x---|
  Grateful, I'm so, grateful, I (it ain't me) 

e|----------|----------|----------|--------------|
B|------1---|------3---|---0------|---3----------|
G|---0--0---|---0--0---|---0--0---|---2--2-------|
D|---2--2-x-|---0--0-x-|---2--2-x-|---0--0-x-----|
A|---3--3-x-|--------x-|--------x-|------0-x-----|
E|--------x-|---3--3-x-|---0--0-x-|--------x-----|
  Ow-ow, the Bowery, ow-ow, the whiskey neat

e|----------|----------|----------|--------------|
B|------1---|------3---|---3------|---3----------|
G|---0--0---|---0--0---|---2--2---|---2--2-------|
D|---2--2-x-|---0--0-x-|---0--0-x-|---0--0-x-----|
A|---3--3-x-|--------x-|------0-x-|------0-x-----|
E|--------x-|---3--3-x-|--------x-|--------x-----|
  Grateful, I'm so, grateful, I (it ain't me)

e|----------|----------|----------|--------------|
B|------0---|------3---|---3------|---1p-0-------|
G|---0--0---|---0--0---|---2--2---|---0----0-----|
D|---2--2-x-|---0--0-x-|---0--0-x-|---2----2-x---|
A|--------x-|--------x-|------0-x-|---3----3-x---|
E|---0--0-x-|---3--3-x-|--------x-|----------x---|
  Ow-ow, the Bowery, ow-ow, the whiskey neat

e|----------|----------|----------|--------------|
B|------0---|------3---|---3------|---3----------|
G|---0--0---|---0--0---|---2--2---|---2--2-------|
D|---2--2-x-|---0--0-x-|---0--0-x-|---0--0---x---|
A|--------x-|--------x-|------0-x-|------0---x---|
E|---0--0-x-|---3--3-x-|--------x-|----------x---|
  Grateful, I'm so, grateful, I (it ain't me) 

e|----------|----------|----------|--------------|
B|------1---|------3---|---0------|---3----------|
G|---0--0---|---0--0---|---0--0---|---2--2-------|
D|---2--2-x-|---0--0-x-|---2--2-x-|---0--0-x-----|
A|---3--3-x-|--------x-|--------x-|------0-x-----|
E|--------x-|---3--3-x-|---0--0-x-|--------x-----|
  Ow-ow, the Bowery, ow-ow, the whiskey neat

e|----------|----------|----------|--------------|
B|------1---|------3---|---3------|---3----------|
G|---0--0---|---0--0---|---2--2---|---2--2-------|
D|---2--2-x-|---0--0-x-|---0--0-x-|---0--0-------|
A|---3--3-x-|--------x-|------0-x-|------0-------|
E|--------x-|---3--3-x-|--------x-|--------------|
  Grateful, I'm so, grateful, I (it ain't me)
            
Submit corrections

↑ Back to top | Tablatures and chords for acoustic guitar and electric guitar, ukulele, drums are parodies/interpretations of the original songs. You may use it for private study, scholarship, research or language learning purposes only