Home » S » Selena Gomez »

Selena Gomez - Same Old Love Tabs

Artists:  A B C D E F G H I J K L M N O P Q R S T U V W X Y Z # 

Same Old Love Tabs

(ver. 1) Click to play this song!
Selena Gomez
Intro:

   Bm       G     A   
e|----2-----------0----------------------|
B|----3-----------2----------------------|
G|---------------------------------------| (x4)
D|---------------------------------------|
A|-2-----2--------0----------------------|
E|----------3--3-------------------------|

Verse:

"Take away your things and go..."

   Bm       G     A
e|----2-----------0----------------------|
B|----3-----------2----------------------|
G|---------------------------------------| (x4)
D|---------------------------------------|
A|-2-----2--------0----------------------|
E|----------3--3-------------------------|

"...before at least a million times..."

   Em      Bm     D
e|---------------------------------------|
B|----8-----------7----------------------|
G|----9-----------7----------------------| (x4)
D|---------------------------------------|
A|-7-----7--------5----------------------|
E|----------7--7-------------------------|

"I don't believe..."

   Bm       G     A
e|----2-----------0----------------------|
B|----3-----------2----------------------|
G|---------------------------------------| (x4)
D|---------------------------------------|
A|-2-----2--------0----------------------|
E|----------3--3-------------------------|

"Too hard to breathe..."

   Em       Bm    D
e|---------------------------------------|
B|----8-----------7----------------------|
G|----9-----------7----------------------| (x4)
D|---------------------------------------|
A|-7-----7--------5----------------------|
E|----------7--7-------------------------|

Chorus:

"I'm so sick of that..."

   Bm       G           Em       A
e|----2-----------------------------------------------------------------|
B|----3-----------3--------8-----------5--------------------------------|
G|----------------4--------9-----------6--------------------------------| (x 8)
D|----------------------------------------------------------------------|
A|-2-----2-----------------------0--0-----0-----------------------------|
E|----------3--3-----3--0-----0-----------------------------------------|

Chorus Lead:

e|-------10--14-------12--14-------------------------------------------|
B|---12-----------------------12---------------------------------------|
G|---------------------------------------------------------------------| (x 8)
D|---------------------------------------------------------------------|
A|---------------------------------------------------------------------|
E|---------------------------------------------------------------------|

Bridge:
This is my interpretation, on the song it's pretty minimal but this fits fine.

    Bm                       Em/B
e|---7-----7-----7-----7-----7-----7-----7-----7-----------------------------|
B|---7-----7-----7-----7-----8-----8-----8-----8-----------------------------|
G|---7-----7-----7-----7-----9-----9-----9-----9-----------------------------|
D|---------------------------------------------------------------------------|
A|---------------------------------------------------------------------------|
E|------7-----7-----7-----7-----7-----7-----7-----7--------------------------|

That's pretty much it. The song structure is this:

Intro
Verse
Chorus
Verse
Chorus
Bridge
Chorus            
Submit corrections

↑ Back to top | Tablatures and chords for acoustic guitar and electric guitar, ukulele, drums are parodies/interpretations of the original songs. You may use it for private study, scholarship, research or language learning purposes only