» » »

Secondhand Serenade - Tested And True Tabs

Artists:  A B C D E F G H I J K L M N O P Q R S T U V W X Y Z # 

Tested And True Tabs

(ver. 1) Click to play this song!
Secondhand Serenade
 Rating:
4/5 (4 votes)

 Tested And True lessons Tabs too difficult? Try these video lessons and learn fast
 
                -----------------------------------------------------
    "Tested and True" - Secondhand Serenade
-----------------------------------------------------

     This one's for my awesome girlfriend, Mye.

Tuning: Standard 

     VERSE        Pre-CHORUS
e|-2-0-3-0-| |-3---------------------|
B|-3-2-3-2-| |-3---------------------|
G|-2-2-0-2-| |-0---------------------|
D|-0-2-2-2-| |-2---------0-----------|
A|-0-0-2-0-| |-2-2-----2---0h1p0h1p0-|
E|-2-------| |-----2-3---------------|

     CHORUS                 BRIDGE
e|-2-0-3-0--0-0-3-0~-0~-| |-2-0-2-2-|
B|-3-2-3-2--3-2-3-0~-2~-| |-3-3-3-3-|
G|-2-2-0-2--2-2-0-0~-2~-| |-2-2-2-2-|
D|-0-2-2-2--0-2-2-2~-2~-| |-0-0-0-0-|
A|-0-0-2-0--0-0-2-2~-0~-| |-0-0-0-0-|
E|-2--------2-----------| |-2-2-2-2-|

     BRIDGE
e|-0~---2--3-3-2--3-3-0-|
B|-0~---3--3-3-3--3-3-2-|
G|-0~---2--0-0-2--0-0-2-|
D|-2~---0--2-0-0--2-0-2-|
A|-2~---0--2-2-0--2-2-0-|
E|-0~---2--0-3-2--0-3-0-|

     OUTRO
e|------0---0--2~--|
B|----3----3-3-3~--|
G|---4----2----2~--|
D|--5----------0~--|
A|-------------0~--|
E|-------------2~--|

Sorry about my first version of this tab.
I was mistaken: there is no capo on the song.
I saw him play it live, and he didn't use
a capo, so here is the acoustic version.
I am not accounting for the electric guitar.
            
Submit corrections


        Tested And True lessons Hard to play? Try these video lessons and learn fast Tested And True lessons
        
↑ Back to top | Tablatures and chords for acoustic guitar and electric guitar, ukulele, drums are parodies/interpretations of the original songs. You may use it for private study, scholarship, research or language learning purposes only