Home » S » Secondhand Serenade »

Secondhand Serenade - Stranger Bass

Artists:  A B C D E F G H I J K L M N O P Q R S T U V W X Y Z # 

Stranger Bass

(ver. 1) Click to play this song!
Secondhand Serenade
 Rating:
4/5 (4 votes)
                well, here it is, my first tab, I totally Love this song and only spent maybe an hour 
it so, please rate well! :)

Just a note, wherever I put a ~ after a note, that means to hold it out.  and when I say 
or 3X8 hat means to play the number 16 times or 8 times in a row.

SecondHand Serenade: Stranger
bass tab
tuning: standard EADG

Bass comes in at 0:54 with held out notes
|-----------------------------|                         |-------------|
|---------5~---------3~-3~-5~-|                         |-------------|
|--3~-----------5-------------|                         |-3~-----3~---|
|-----------------------------|                         |-------------|
        (X2)
1:33
|---------------------------------|
|---------------------------------|
|--------3X16----------5~---------|
|--1X16--------1X16--------3~-----|

1:59
|------------------------------------------------------------------------|
|------------------------------------------------------------------------|
|--3X8-------5X8------------3X8------5X8------------5X8------5X8-------3~|
|-------3X8-------1X4--3X4-------3X8------1X4--3X4-------3X8------3X8----|

2:51
|----------------------|
|----------------------|
|--3X8-----------------|
|-------5X8--1X8--3X8--|
       (X2)
|-----------------------------------------------|
|-----------------------------------------------|
|--3X8------------------------------------------|
|-------5X8--1X8--5X4--3X4--1X8--5X4--3X4--1X8--|

3:40
|------------------------|        |------------------------------|
|------5~------3~-3~-5~--|        |------------------------------|
|--3~------5~------------|        |--3X8------5X8------------3~~-|
|------------------------|        |-------3X8------1X4--3X4------|
        (X3)


Thats it!   comment if there is something I messed up on!
            
Submit corrections

↑ Back to top | Tablatures and chords for acoustic guitar and electric guitar, ukulele, drums are parodies/interpretations of the original songs. You may use it for private study, scholarship, research or language learning purposes only