Home » S » Sean Lennon »

Sean Lennon - Friendly Fire Tabs

Artists:  A B C D E F G H I J K L M N O P Q R S T U V W X Y Z # 

Friendly Fire Tabs

(ver. 2) Click to play this song!
Sean Lennon
 Rating:
4/5 (6 votes)
                (Intro)
Guitare 1
     
E||--------------------|--------------------|--------------------|
B||-----------1--------|-----------1--------|-----------1--------|
G||--------2-----2-----|--------0-----2-----|--------2-----2-----|
D||-----2-----------2--|-----2-----------2--|-----2-----------2--|
A||--0-----------------|--------------------|--------------------|
E||--------------------|--3-----------------|--1-----------------|


 
--------------------|--------------------|--------------------|
-----------0--------|-----------1--------|-----------0--------|
--------2-----2-----|--------0-----0-----|--------2-----2-----|
-----2-----------2--|-----2-----------2--|-----0-----------0--|
--------------------|--3-----------------|--------------------|
--1-----------------|--------------------|--4-----------------|


  
--------------------|--------------------|--------------------|
-----------6--------|-----------6--------|-----------5--------|
--------7-----7-----|--------7-----7-----|--------7-----7-----|
-----0-----------0--|-----0-----------0--|-----6-----------6--|
--------------------|--------------------|--------------------|
--7-----------------|--7-----------------|--0-----------------|


        
--------------------|-----|| 
-----------5--------|-----||
--------7-----7-----|-----||
-----6-----------6--|-----||
--------------------|-----||
--0-----------------|-----||



Guitare 2
E||----------------------|----------------------|----------------------|
B||-------0-----0-----0--|-------0-----0-----0--|-------0-----0-----0--|
G||--4g5-----5-----4-----|--4g5-----5-----4-----|--2g4-----4-----4-----|
D||----------------------|----------------------|----------------------|
A||----------------------|----------------------|----------------------|
E||----------------------|----------------------|----------------------|


 
-----------------|----------------------|--------------------|
-----------------|-------0-----0-----0--|-----0-----0-----0--|
--2----1----2----|--4g5-----5-----4-----|--4-----4-----4-----|
-----------------|----------------------|--------------------|
-----------------|----------------------|--------------------|
-----------------|----------------------|--------------------|


 
--------------------|--------------------|--------------------|
-----0--------0-----|-----0--------------|-----0-----0--------|
--4-----4--9-----9--|--7-----7--5--5--4--|--4-----4-----4--4--|
--------------------|--------------------|--------------------|
--------------------|--------------------|--------------------|
--------------------|--------------------|--------------------|


   
--------------------|-----|| 
--------------------|-----||
--4--4--2--2--2--1--|-----||
--------------------|-----||
--------------------|-----||
--------------------|-----||
            
Submit corrections

↑ Back to top | Tablatures and chords for acoustic guitar and electric guitar, ukulele, drums are parodies/interpretations of the original songs. You may use it for private study, scholarship, research or language learning purposes only