» » »

Sean Lennon - On Again Off Again Tabs

Artists:  A B C D E F G H I J K L M N O P Q R S T U V W X Y Z # 

On Again Off Again Tabs

(ver. 1) Click to play this song!
Sean Lennon
 Rating:
4/5 (7 votes)

 On Again Off Again lessons Tabs too difficult? Try these video lessons and learn fast
 
                Intro/Couplet
    
E||---------------------|--------------------|---------------------|
B||---------4-----------|---------5----------|---------4-----------|
G||*--------4---4-------|---------4---------*|---------4---4-------|
D||*-----4--------------|------2------------*|------4--------------|
A||--2------------------|--------------------|--2------------------|
E||----------------2----|--3-----------------|----------------2----|


 
  |---------------------|---------------------|---------------------|
  |---------2-----------|---------2-----------|---------------------|
  |------1--1---1-------|---------1---1-------|---------3-----------|
  |---------------------|---------------------|---------2-----------|
  |---------------------|------2--------------|------4------4--1----|
  |--1-------------1----|--0-------------1----|--2------------------|


Refrain


  |---------------------|---------------------|---------------------|
  |---------------------|---------4-----------|---------4-----------|
  |---------3-----------|------4------4-------|------4------4-------|
  |---------2-----------|---------------------|---------------------|
  |------4--------------|---------------------|---------------------|
  |--2-------------3----|--4-------------4----|--3-------------3----|




  |----------------------|
  |---------5------------|
  |------6------6--------|
  |----------------------|
  |----------------4--5--|
  |--6-------------------|
  

 
  |---------------------|---------------------|---------------------|
  |---------4-----------|---------4-----------|---------------------|
  |---------6-----------|---------4---4-------|---------4-----------|
  |------5------5-------|------4--------------|---------5-----------|
  |--6-------------6----|--2------------------|------5------5-------|
  |---------------------|----------------2----|--3-------------3----|


 
  |---------------------|---------------------|---------------------|
  |---------0-----------|---------------------|---------4-----------|
  |---------1-----------|---------3-----------|------4------4-------|
  |---------2-----------|---------2-----------|---------------------|
  |------2------2-------|------4--------------|---------------------|
  |--0-------------1----|--2-------------3----|--4-------------4----|


  
  |---------------------|----------------------|---------------------|
  |---------4-----------|---------5------------|---------4-----------|
  |------4------4-------|------6------6--------|---------6-----------|
  |---------------------|----------------------|------5------5-------|
  |---------------------|----------------4--5--|--6-------------6----|
  |--3-------------3----|--6-------------------|---------------------|


 
  |---------------------|---------3-----------|---------2-----------|
  |---------4-----------|---------3-----------|---------3-----------|
  |---------4---4-------|------0------0-------|------2------2-------|
  |------4--------------|---------------------|--0------------------|
  |--2------------------|--2-------------2----|---------------------|
  |----------------2----|--3-------------3----|----------------1----|


    
  |----------------------|
  |----------------------|
  |---------3------------|
  |---------2------------|
  |------4------4--------|
  |--2--------------2----|
            
Submit corrections


        On Again Off Again lessons Hard to play? Try these video lessons and learn fast On Again Off Again lessons
        
↑ Back to top | Tablatures and chords for acoustic guitar and electric guitar, ukulele, drums are parodies/interpretations of the original songs. You may use it for private study, scholarship, research or language learning purposes only