Home » S » Sean Hayes »

Sean Hayes - Powerful Stuff Tabs

Artists:  A B C D E F G H I J K L M N O P Q R S T U V W X Y Z # 

Powerful Stuff Tabs

(ver. 2) Click to play this song!
Sean Hayes
Powerful stuff- Sean Hayes

KeepThis=true&TB_iframe=true&height=550&width=700

For a Tab version, check out my profile

I usually only play the bass note followed by the second and third strings
instead of the whole chord.

3 chords are used: 

  E      F#minor   G#minor
E|-0--------2----------4------|
B|-0--------2----------4------|
G|-1--------2----------4------|
D|-2--------4----------6------|
A|-2--------4----------6------|
E|-0--------2----------4------|




p= pull off

intro:
|---------------------------------------------------|
|------7---5----------------------------------------|
|------------6p4------------------------------------|
|----------------6----------------------------------|
|---------------------------------------------------|
|-0-------------------------------------------------|



               E
Oh yes this is powerful stuff

                         F#minor
Got me circling like the moon round the sun

                    G#minor
Acting crazy like a fool on a drunk

F#minor              E
 Hmm Hear me this is powerful stuff

No way for you to give this up

It is in your body

 F#minor
It is all in your blood

Tear you down

G#minor
Lift you up

F#minor                          E
  And Keep you turning like it's never enough  


All right then let us turn it up

                   F#minor
Everyday do like a flower does

                  G#minor
Sun rises and she opens up

F#minor           E
Sun rises and she sings


Aww Hit me

       E                   
This is powerful

F#minor                 
Powerful

G#minor                 
Powerful

*Snap Snap*
(Repeat, then 3 snaps not 2)

Intro X2

E                F#minor          G#minor      F#minor      E    
Awh     Awh      Awh     Awh      Awh          Awh         nanana



                Adicional chords:     C#minor    A(Var)     D  
                                   E|----4-------5----------2---------|
                                   B|----5-------5----------3---------|
                                   G|----6-------6----------2---------|
                                   D|----6-------7----------0---------|
                                   A|----4-------7----------X---------|
                                   E|----X-------5----------X---------|

BRIDGE:
         E        C#minor  
Are you ready?

         A        G#minor
Are you ready?

         E        D          
Are you ready?

C#minor
When a thing is so strong

F#minor
You can' t give it up   Won't give it up

G#minor
Got you    Turning   Yearning   Burning

F#minor
Can't give it up   Won't give up

G#minor
Even when your   Turning   Yearning   Burning

F#minor
Can't give it up   Won't give it up

Intro
Powerful stuff
            
Submit corrections

↑ Back to top | Tablatures and chords for acoustic guitar and electric guitar, ukulele, drums are parodies/interpretations of the original songs. You may use it for private study, scholarship, research or language learning purposes only