Home » S » Seals And Crofts »

Seals And Crofts - Summer Breeze Bass

Artists:  A B C D E F G H I J K L M N O P Q R S T U V W X Y Z # 

Summer Breeze Bass

(ver. 2) Click to play this song!
Seals And Crofts
 Intro
  Q=88
 4/4
  Gtr I
  W          W           E  E   E  E  +E   Q   E
|----------|----------|----12-/19-16-(16)-14--12--|
|----------|----------|-14------------------------|
|----------|----------|---------------------------|
|----------|----------|---------------------------|


   E  E  E  E  +Q.   E    E  E   E  E  +E   Q   E    E  E  E  E  +Q    Q
|-11-------------------|----12-/19-16-(16)-14--12-|------------------------||
|----14-12-14-(14)-----|-14-----------------------|-16-14-12-14-(14)--14\--||
|----------------------|--------------------------|------------------------||
|----------------------|--------------------------|------------------------||


   1st & 2nd Verses
    Q  E. S E E E. S   E E E S S E E E S S   E. S E E +Q   E S S
||-------------------|---------------------|---------------------|
||o---------5-5----x-|---------------------|---------------------|
||o-7-----7----------|-5-5---5---------5-5-|-7--7-7----------5-6-|
||-------------------|---------5-5-5-------|--------5-(5)--------|


  Q  E S S E E E S S   E E E S S E E E S S   E. S E E +S  S E S S S S
|--------------------|---------------------|--------------------------||
|----------5-5-------|---------------------|--------------------------||
|-7----7-7-------7-6-|-5-5---5-x-------5-6-|-7--7-7-7-(7)-7-7-7-5-----||
|--------------------|-----------5-5-------|----------------------7-6-||


 Chorus
  $
  Q  E. S E E E S S   E S S E E +S  S E E S S   E. S E. S E E E S S
|-------------------|-------------------------|---------------------|
|-------------------|-------------------------|---------------------|
|-------------------|-------------------------|---------------------|
|-5-----5-5-5---5-5-|-7-7-7---7-(7)-7-7---7-7-|-5--x----5-5-5---5-4-|


  Q  E E +Q   E E   +Q   E E +Q   S S E   E. S E. S E E E S S
|-----------------|---------------------|----------------------|
|-----------------|---------------------|----------------------|
|-----------------|---------------------|----------------------|
|-3----3-(3)----3-|-(3)----3-(3)----4-4-|-5--5----5-5-5---5-5--|


  E S S E E E S S E S S   E. S E. S E E E S S   Q  E E +Q   E E
|-----------------------|---------------------|-----------------|
|-----------x-9-9-------|---------------------|-----------------|
|---------9---------9-8-|---------------------|-----------------|
|-7-7-7-----------------|-5--5----5-5-5---5-4-|-3----3-(3)----3-|


                     Interlude
           To Coda
  +Q   E E +Q   Q     Q  E E +Q.   E   Q  E E +Q.   E
|------------------||----------------|----------------|
|------------------||----------------|----------------|
|------------------||-7--------------|-7--7-----------|
|-(3)----3-(3)-----||------5-(5)-----|------5-(5)-----|


                  1.                   2.
  Q  E E +Q.   E   Q  E E +Q.   S S     Q  E E +Q.   S S
|----------------|-------------------||-------------------||
|----------------|------------------o||-------------------||
|-7--------------|-7--7---------5-6-o||-7--7--------------||
|------5-(5)-----|------5-(5)--------||------5-(5)---x-5--||


 Bridge
  Q  E. S E Q  S S   Q  +E. S E S S E S S   Q.   S S E Q  S S
|------------------|----------------------|-------------------|
|------------------|----------------------|-------------------|
|-5--5--5-5-5--5-5-|-7--(7)-7-7-7-7-7-----|-5----5-5-5-5--5-5-|
|------------------|------------------5-6-|-------------------|


  Q  +E. S E S S E S S   Q  E. S E S S E S S
|----------------------|---------------------||
|----------------------|---------------------||
|-7--(7)-7-7-7-7-7-----|-----------------5-6-||
|------------------5-6-|-7--7--7-7-7-7-7-----||


 3rd Verse
  E. S E. S E S S E S S   E. S E S S E. S E S S   E. S E E +Q   E S S
|-----------------------|-----------------------|---------------------|
|-----------5-5-x-------|-----------------------|---------------------|
|-7--7----7---------4-4-|-5--5------------4-5-6-|-7--7-7----------6-6-|
|-----------------7-----|------2-3-4-5--5-------|--------5-(5)--------|


                                                          D.S. al Coda
  Q  E S S E E E S S   E E E S S E E E S S   E. S E E +S  S E S S S S
|--------------------|---------------------|----------------------------||
|----------5-5-------|---------------------|----------------------------||
|-7----7-7-------7-6-|-5-5---5-x-------5-6-|-7--7-7-7-(7)-7-7-7-5-------||
|--------------------|-----------5-5-------|----------------------7-6---||


   Outro
    &
    Q  E E +Q.   E   Q  E E +Q.   E   Q  E E +Q.   E   Q  E E +Q.   E
||-----------------|----------------|----------------|------------------||
||o----------------|----------------|----------------|-----------------o||
||o-7--------------|-7--------------|-7--------------|-7---------------o||
||-------5-(5)-----|------5-(5)-----|------5-(5)-----|------5-(5)-------||            
Submit corrections

↑ Back to top | Tablatures and chords for acoustic guitar and electric guitar, ukulele, drums are parodies/interpretations of the original songs. You may use it for private study, scholarship, research or language learning purposes only