» » »

Seafret - Tell Me Its Real Tabs

Artists:  A B C D E F G H I J K L M N O P Q R S T U V W X Y Z # 

Tell Me Its Real Tabs

(ver. 2) Click to play this song!
Seafret
 Rating:
4.2/5 (30 votes)

 Tell Me Its Real lessons Tabs too difficult? Try these video lessons and learn fast
 
                
[Intro]
e|-------------------------------------------|
B|-----0----2----0----0----0----2----0----0--|
G|----0----0----0----0----0----0----0----0---|
D|---0----0----0----0----0----0----0----0----| 2x
A|--3----3----2----2-------------------------|
E|----------------------3----3----3----3-----|

[Verse]
e|-------------------------------------------|
B|-----0----2----0----0----0----2----0----0--|
G|----0----0----0----0----0----0----0----0---|
D|---0----0----0----0----0----0----0----0----| 
A|--3----3----2----2-------------------------|
E|----------------------3----3----3----3-----|

She said I really dont mind if you have to leave my side,

e|-------------------------------------------|
B|-----0----2----0----0----0----2----0----0--|
G|----0----0----0----0----0----0----0----0---|
D|---0----0----0----0----0----0----0----0----| 
A|--3----3----2----2-------------------------|
E|----------------------3----3----3----3-----|

Cuz I've been made to walk alone all the way through my life.

e|--------------------------------------------|
B|-----0----0----0----0-----0----0----0----0--|
G|----0----0----0----0-----0----0----0----0---|
D|---0----0----0----0-----0----0----0----0----|
A|--3----3----2----2--------------------------|
E|----------------------3-----3----2----2-----|

And I never really thought about it, no I never really thought about it. 

e|-------------------------------------------|
B|-----0----2----0----0----0----2----0----0--|
G|----0----0----0----0----0----0----0----0---|
D|---0----0----0----0----0----0----0----0----| 
A|--3----3----2----2-------------------------|
E|----------------------3----3----3----3-----|

It's because of you that I believe in me for the first time.

e|----------------------------------------|   
B|-----------------------0---0---0---0----|   
G|----0---0---0---0-----0-0-0-0-0-0-0-0---|   
D|---0-0-0-0-0-0-0-0----------------------|    
A|--3---3---3---3----3--------------------|   
E|---------------------0---0---0---0---0--|   

And I know, love's always been sink or swim so I

|--------------------------------------|
|-------------0---2---0---0---0---0----|
|----0---0---0---0---0-0-0-0-0-0-0-0---|
|---0-0-0-0-0---0----------------------|
|--3---3---3---3-----------------------|
|-------------------0---0---0---0---0--|

 Wont, say it's over just as it begins

[Chorus]
e|---------------------------------------------------------------------------|
B|-----0----2----0----0----1----3----1----0----0----2----0----0----1------3--|
G|----0----0----0----0----0----0----0----0----0----0----0----0----0---0-0-0--|
D|---0----0----0----0----2----2----2----0----0----0----0----0----2-----2-----|
A|--3----3----2----2----3----3----3----3--------------2----2----3----3-------|
E|------------------------------------------0----0---------------------------|

So tell me it's real, tell me it's real.

[Verse 2]
e|-------------------------------------------|
B|-----0----2----0----0----0----2----0----0--|
G|----0----0----0----0----0----0----0----0---|
D|---0----0----0----0----0----0----0----0----| 
A|--3----3----2----2-------------------------|
E|----------------------3----3----3----3-----|

I left you unprotected in the fortress of your mind.

e|-------------------------------------------|
B|-----0----2----0----0----0----2----0----0--|
G|----0----0----0----0----0----0----0----0---|
D|---0----0----0----0----0----0----0----0----| 
A|--3----3----2----2-------------------------|
E|----------------------3----3----3----3-----|

Felt the rhythm of my heart beating out the words I couldn't find.

e|--------------------------------------------|
B|-----0----0----0----0-----0----0----0----0--|
G|----0----0----0----0-----0----0----0----0---|
D|---0----0----0----0-----0----0----0----0----|
A|--3----3----2----2--------------------------|
E|----------------------3-----3----2----2-----|

And no I never really thought about it, no I never really thought about it

e|-------------------------------------------|
B|-----0----2----0----0----0----2----0----0--|
G|----0----0----0----0----0----0----0----0---|
D|---0----0----0----0----0----0----0----0----| 
A|--3----3----2----2-------------------------|
E|----------------------3----3----3----3-----|

Stop me dead in my tracks, as it hit me for the first time.

e|---------------|
B|-------0-------|
G|--0---------0--|
D|-------2-------|
A|--3---------3--|
E|---------------|

Yes I'm broke, thinking what if we never meet again, and I froze

e|--------------------|
B|----0---0---0---0---|
G|---0-0-0-0-0-0-0-0--|
D|--------------------|
A|--------------------|
E|--3---3---2---2-----|

What if heaven doesn't let me in?

[Chorus]           
e|-----------------------------------------------------------------------------|
B|-----0----2----0----0----1----3----1----0----0----2----0----0----1----3---1--|
G|----0----0----0----0----0----0----0----0----0----0----0----0----0----0---0---|
D|---0----0----0----0----2----2----2----0----0----0----0----0----2----2---2----|
A|--3----3----2----2----3----3----3----3--------------2----2----3----3---3-----|
E|------------------------------------------0----0-----------------------------|

Oh tell me it's real, tell me it's real

e|-------------------------------------------------------------------------|
B|-----0----2----0----0----1----3----1----0----0----2----0----0----1----3--|
G|----0----0----0----0----0----0----0----0----0----0----0----0----0----0---|
D|---0----0----0----0----2----2----2----0----0----0----0----0----2----2----|
A|--3----3----2----2----3----3----3----3--------------2----2----3----3-----|
E|------------------------------------------0----0-------------------------|

Tell me it's real, tell me it's real

(BEGIN STRUMMING)

[Bridge]
Em           G           C                         Cadd9 
Cuz' I know, eventually, it's all gonna happen now it's meant to be
Em           G           C                         Cadd9
Yeah, I know eventually, it's all gonna happen now it's meant to be
Em                         G
Yeah, I'm still the same I was when you found me
C                     Cadd9
You showed me what it feels like to be free
    Em       G                     C                  Cadd9
Yeah, I know eventually, won't you tell me, won't you tell me

[Outro]
*(Strum once)
             Em*   G*   C*   Cadd9*
Tell me it's real
             Em*   G*   C*   Cadd9*
Tell me it's real
             Em*   G*   C*   Cadd9*
Tell me it's real
             Em*   G*   C*   Cadd9*
Tell me it's real            
Submit corrections


        Tell Me Its Real lessons Hard to play? Try these video lessons and learn fast Tell Me Its Real lessons
        
↑ Back to top | Tablatures and chords for acoustic guitar and electric guitar, ukulele, drums are parodies/interpretations of the original songs. You may use it for private study, scholarship, research or language learning purposes only