» » »

Seafret - Tell Me Its Real Tabs

Artists:  A B C D E F G H I J K L M N O P Q R S T U V W X Y Z # 

Tell Me Its Real Tabs

(ver. 1) Click to play this song!
Seafret
 Rating:
4.3/5 (10 votes)

 Tell Me Its Real lessons Tabs too difficult? Try these video lessons and learn fast
 
                [Intro]
e|----------------------------------------------------------------------|
B|--------0-------3-------0-------0-------0-------3-------0-------0-----|
G|------0-------0-------0-------0-------0-------0-------0-------0-------|  (x2)
D|----0-------0-------0-------0-------0-------0-------0-------0---------|
A|--3-------3-------2-------2-------------------------------------------|
E|----------------------------------3-------3-------3-------3-----------|
                                                            She said I (After 2nd intro)

     1st verse
e|-------------------------------------------------------------------------------------------------------|
B|-----------0-----------3-----------0-------------0------------0------------3-----------0-----------0---|
G|--------0-----------0-----------0-------------0------------0------------0-----------0-----------0------|
D|-----0-----------0-----------0-------------0------------0------------0-----------0-----------0---------|
A|--3-----------3-----------2-------------2--------------------------------------------------------------|
E|-----------------------------------------------------3------------3-----------3-----------3------------|
    really don't mind if you have to leave my side                                        Because I've been 

e|-------------------------------------------------------------------------------------------------------|
B|-----------0-----------3-----------0-------------0------------0------------3-----------0-----------0---|
G|--------0-----------0-----------0-------------0------------0------------0-----------0-----------0------|
D|-----0-----------0-----------0-------------0------------0------------0-----------0-----------0---------|
A|--3-----------3-----------2-------------2--------------------------------------------------------------|
E|-----------------------------------------------------3------------3-----------3-----------3------------|
    made to walk alone all the way through my life                                                And I 

e|-------------------------------------------------------------------------------------------------------|
B|-----------0-----------0-----------0-------------0------------0------------0------------0------------0-|
G|--------0-----------0-----------0-------------0------------0------------0------------0------------0----|
D|-----0-----------0-----------0-------------0------------0------------0------------0------------0-------|
A|--3-----------3-----------2-------------2--------------------------------------------------------------|
E|-----------------------------------------------------3------------3------------2------------2----------|
    never really thought about it            No I     never really thought      about it           It's
 
e|-------------------------------------------------------------------------------------------------------|
B|-----------0-----------3-----------0-------------0------------0------------3-----------0-----------0---|
G|--------0-----------0-----------0-------------0------------0------------0-----------0-----------0------|
D|-----0-----------0-----------0-------------0------------0------------0-----------0-----------0---------|
A|--3-----------3-----------2-------------2--------------------------------------------------------------|
E|-----------------------------------------------------3------------3-----------3-----------3------------|
    because of you that I believe in me for the first time                                       And I 

e|------------------------------------------------------------------------------------------------------|
B|------------------------------------------------------------------------------------------------------|
G|--------0-----------0-----------0------------0------------0------------0------------0------------0----|
D|-----0-----0-----0-----0-----0-----0------0-----0------0-----0------0-----0------0-----0------0-----0-|
A|--3-----------3-----------2------------2--------------------------------------------------------------|
E|----------------------------------------------------3------------3------------2------------2----------|
    know                                         That love's   always   been    sink or      swim so I

e|------------------------------------------------------------------------------------------------------|
B|------------------------------------------------------------------------------------------------------|
G|--------0-----------0-----------0------------0------------0------------0------------0------------0----|
D|-----0-----0-----0-----0-----0-----0------0-----0------0-----0------0-----0------0-----0------0-----0-|
A|--3-----------3-----------2------------2--------------------------------------------------------------|
E|----------------------------------------------------3------------3------------2------------2----------|
    won't                                       Say it's    over just as it     begins   So, tell me it's

e|-------------------------------------------------------------------------------------------------------|
B|-----------0-----------3-----------0-------------0------------0------------3-----------0-----------0---|
G|--------0-----------0-----------0-------------0------------0------------0-----------0-----------0------|
D|-----0-----------0-----------0-------------0------------0------------0-----------0-----------0---------|
A|--3-----------3-----------2-------------2--------------------------------------------------------------|
E|-----------------------------------------------------3------------3-----------3-----------3------------|
    real (extend)-------------------------------->                                          Tell me it's

e|-------------------------------------------------------------------------------------------------------|
B|-----------0-----------3-----------0-------------0------------0------------3---------------------------|
G|--------0-----------0-----------0-------------0------------0------------0------------------------------|
D|-----0-----------0-----------0-------------0------------0------------0---------------------------------|
A|--3-----------3-----------2-------------2--------------------------------------------------------------|
E|-----------------------------------------------------3------------3------------------------------------|
    real (extend)-------------------------------->                                              I left 


     2st verse
e|-------------------------------------------------------------------------------------------------------|
B|-----------0-----------3-----------0-------------0------------0------------3-----------0-----------0---|
G|--------0-----------0-----------0-------------0------------0------------0-----------0-----------0------|
D|-----0-----------0-----------0-------------0------------0------------0-----------0-----------0---------|
A|--3-----------3-----------2-------------2--------------------------------------------------------------|
E|-----------------------------------------------------3------------3-----------3-----------3------------|
    you unprotected in the  fortress    of your mind                                        Felt the

e|-------------------------------------------------------------------------------------------------------|
B|-----------0-----------3-----------0-------------0------------0------------3-----------0-----------0---|
G|--------0-----------0-----------0-------------0------------0------------0-----------0-----------0------|
D|-----0-----------0-----------0-------------0------------0------------0-----------0-----------0---------|
A|--3-----------3-----------2-------------2--------------------------------------------------------------|
E|-----------------------------------------------------3------------3-----------3-----------3------------|
    rhythm of my heart beating out the words I couldn't find                                    And no I 

e|-------------------------------------------------------------------------------------------------------|
B|-----------0-----------0-----------0-------------0------------0------------0------------0------------0-|
G|--------0-----------0-----------0-------------0------------0------------0------------0------------0----|
D|-----0-----------0-----------0-------------0------------0------------0------------0------------0-------|
A|--3-----------3-----------2-------------2--------------------------------------------------------------|
E|-----------------------------------------------------3------------3------------2------------2----------|
    never really thought about it                   No I     never really thought      about it          
 
e|-------------------------------------------------------------------------------------------------------|
B|-----------0-----------3-----------0-------------0------------0------------3-----------0-----------0---|
G|--------0-----------0-----------0-------------0------------0------------0-----------0-----------0------|
D|-----0-----------0-----------0-------------0------------0------------0-----------0-----------0---------|
A|--3-----------3-----------2-------------2--------------------------------------------------------------|
E|-----------------------------------------------------3------------3-----------3-----------3------------|
    Stop me dead in my tracks as it hit me for the first time                                   And I 

e|--X-------------------------------------------------X-------------------------------------------------|
B|--X-------------------------------------------------X-------------------------------------------------|
G|--0-------------------------------------------------0-------------------------------------------------|
D|--2-------------------------------------------------0-------------------------------------------------|
A|--3-------------------------------------------------2-------------------------------------------------|
E|--0-------------------------------------------------3-------------------------------------------------|
    broke                                    thinking what if we never meet again,               and I 

e|--X---------------------------------------------------------------------------------------------------|
B|--X---------------------------------------------------------------------------------------------------|
G|--0-------------------------------------------------------0------------0------------0------------0----|
D|--2----------------------------------------------------0-----0------0-----0------0-----0------0-----0-|
A|--3---------------------------------------------------------------------------------------------------|
E|--0-------------------------------------------------3------------3------------2------------2----------|
    froze                                     What if heaven doesn't let me in?             Oh tell me it's

e|-------------------------------------------------------------------------------------------------------|
B|-----------0-----------3-----------0-------------0------------0------------3-----------0-----------0---|
G|--------0-----------0-----------0-------------0------------0------------0-----------0-----------0------|
D|-----0-----------0-----------0-------------0------------0------------0-----------0-----------0---------|
A|--3-----------3-----------2-------------2--------------------------------------------------------------|
E|-----------------------------------------------------3------------3-----------3-----------3------------|
    real (extend)-------------------------------->                                          Tell me it's


e|-------------------------------------------------------------------------------------------------------|
B|-----------0-----------3-----------0-------------0------------0------------3-----------0-----------0---|
G|--------0-----------0-----------0-------------0------------0------------0-----------0-----------0------|
D|-----0-----------0-----------0-------------0------------0------------0-----------0-----------0---------|
A|--3-----------3-----------2-------------2--------------------------------------------------------------|
E|-----------------------------------------------------3------------3-----------3-----------3------------|
    real (extend)-------------------------------->                                          Tell me it's


e|-------------------------------------------------------------------------------------------------------|
B|-----------0-----------3-----------0-------------0------------0------------3-----------0-----------0---|
G|--------0-----------0-----------0-------------0------------0------------0-----------0-----------0------|
D|-----0-----------0-----------0-------------0------------0------------0-----------0-----------0---------|
A|--3-----------3-----------2-------------2--------------------------------------------------------------|
E|-----------------------------------------------------3------------3-----------3-----------3------------|
    real (extend)-------------------------------->                                          Tell me it's

e|-------------------------------------------------------------------------------------------------------|
B|-----------0-----------3-----------0-------------0------------0------------3-----------0-----------0---|
G|--------0-----------0-----------0-------------0------------0------------0-----------0-----------0------|
D|-----0-----------0-----------0-------------0------------0------------0-----------0-----------0---------|
A|--3-----------3-----------2-------------2--------------------------------------------------------------|
E|-----------------------------------------------------3------------3-----------3-----------3------------|
    real (extend)-------------------------------->                                              Cause


      Em       G             C       
Cause I know eventually it's all gonna happen now it's meant to be
    Em         G             C 
Yeah, I know eventually it's all gonna happen now it's meant to be
    Em                    G
Yeah, I'm still the same I was when you found me
C
You showed me what it feels like to be free
Em             G
Yeah, I know eventually
          C
Won't you tell me?

Won't you tell me?


(single strum on notes)
                  Em G C
 Oh, tell me it's re - al
                  Em G C
     Tell me it's re - al
                  Em G C
     Tell me it's re - al
                  Em G C 
Just tell me it's re - al             
Submit corrections


        Tell Me Its Real lessons Hard to play? Try these video lessons and learn fast Tell Me Its Real lessons
        
↑ Back to top | Tablatures and chords for acoustic guitar and electric guitar, ukulele, drums are parodies/interpretations of the original songs. You may use it for private study, scholarship, research or language learning purposes only