Home » S » Screaming Trees »

Screaming Trees - More Or Less Tabs

Artists:  A B C D E F G H I J K L M N O P Q R S T U V W X Y Z # 

More Or Less Tabs

(ver. 2) Click to play this song!
Screaming Trees
(Intro)

Tunning: E_a_d_g_b_e

You can play most of the song with this but the ending solo is left out got to tired


INTRO: ( Strings are strummed lightly )
|-----------------------------------------------|
|-----3~-------3~------3~-----------------------|
|------2~-------2~------2~----------------------| PLAY THIS 1X
|-2-2-0~-------0~------0~-----------------------|
|-2-2-------------------------------------------|
|-0-0-----0-3-3----0-2-2--0/3~-3-2-2~-2-2-2-----|

SOLO:
|-------12~-12-----------------------10-12~-12-13-13-13--------|
|----------------17-15-12-12~--10-12-----------------------12~-|
|-9~-9---------------------------------------------------------|
|--------------------------------------------------------------|
|--------------------------------------------------------------|
|--------------------------------------------------------------|

|----------------------------------10-12~-12-13-13---12~----|
|-12-13-15~--15-13-12~--10-12-------------------12----------|
|-----------------------------------------------------------|
|-----------------------------------------------------------|
|-----------------------------------------------------------|
|-----------------------------------------------------------|

I started tabing this when i was bored and it took me a while to figure out, the last
solo i didnt try to tab i went off and done something else
            
Submit corrections

↑ Back to top | Tablatures and chords for acoustic guitar and electric guitar, ukulele, drums are parodies/interpretations of the original songs. You may use it for private study, scholarship, research or language learning purposes only