Home » S » Screaming Trees »

Screaming Trees - Nearly Lost You Tabs

Artists:  A B C D E F G H I J K L M N O P Q R S T U V W X Y Z # 

Nearly Lost You Tabs
Version #1
Screaming Trees


Copy URL


Band: Screaming Trees

*Intro*
                               [E]
e|------------------------------0------|
B|------------------------------0------|
G|--4--4-4-5-4----6--6-6-7-6----1------|
D|--5--5-5-5-5----7--7-7-7-7----2------|
A|--5--5-5-5-5----7--7-7-7-7----2------|
E|--3--3-3-3-3----5--5-5-5-5----0------|


*Verse*

   [E]     [E7]  [E]  [C]     [C7]  [C]
e|--0-0-0-0-0-0-0-0----0-0-0-0-0-0-0-0----|
B|--0-0-0-0-3-3-3-0----1-1-1-1-1-1-1-1----|
G|--1-1-1-1-1-1-1-1----0-0-0-0-3-3-3-0----|
D|--2-2-2-2-0-0-0-2----2-2-2-2-2-2-2-2----|
A|--2-2-2-2-2-2-2-2----3-3-3-3-3-3-3-3----|
E|--0-0-0-0-0-0-0-0-----------------------|


*Pre-Chorus Riff*
   [E]   [D]        [C]
e|--0-----2--2-------0----|
B|--0-----3--3-------1----|
G|--1-----2--2-------0----|    GUITAR
D|--2-----0--0-------2----|     ONE
A|--2----------------3----|
E|--0---------------------|
|                        |
e|------------------------|
B|--8--------7-----\(5)---|
G|--------9\7-----7\-5----|    GUITAR
D|------------------------|     TWO
A|------------------------|
E|------------------------|


*Chrous*
   [C7][C][G5]   [F]    [C]
e|--0-0-0--3------1------0------|
B|--1-1-1--3------1------1------|
G|--3-3-0--0------2------0------|
D|--2-2-2--0------3------2------|
A|--3-3-3----------------3------|
E|---------3--------------------|


*Solo Riff*

e|--------10-------------------------------------------|
B|--10h12-------10--12-------10h12-10h12-10--8h10p8----|
G|--------------------------------------------------9--|
D|-----------------------------------------------------|
A|-----------------------------------------------------|
E|-----------------------------------------------------|


PLAYING INFORMATION...

1st Verse to Chorus...
Intro
Verse 2x (w/ Guitar Solo)
Verse (vox begin)
Intro
Verse
Intro
Pre-Chorus
Chorus (2x)

2nd Verse starts with Verse and follows a similar pattern

Nearly Lost You consists of only a few main chord progressions.
It's a fairly simple song to play. All that's necessary is the
basic distortion for the majority of the song and even the solo
can be played without any effects. The toughest part is the
chord switching in the Intro. This is how I play it...

First Finger, 3rd Fret Low E
Second Finger, 4th Fret G
Third Finger, 5th Fret A
Fourth Finger, 5th Fret D

I barre the G string with my pinky (4th finger) when the chord
jumps.

Also, without knowing the song well, it'll be hard to totally
organize this song. If you don't have the album, buy it. It's
honestly one of the best albums ever made. There are also
quick fills between chord switches during the Verse that I
haven't tabbed... they're just quick hammers and pull offs.

The Solo Riff is the base for the solos that appear throughout
the song, whether it's during the verse riff or the solo itself.
During the solo, the rhythm guitar plays the verse riff.

TABLATURE INFORMATION...

The original version of the "Nearly Lost You" tab (by
the basics, corrected a few things, and tried to time them
fairly accurately.

Key:
  h = hammer-on
  p = pull-off
  \ = slide down
 () = optional/shadow note


Tablature by HIV Baby
            
Submit corrections

↑ Back to top | Tablatures and chords for acoustic guitar and electric guitar, ukulele, drums are parodies/interpretations of the original songs. You may use it for private study, scholarship, research or language learning purposes only