Home » S » Scott Matthews »

Scott Matthews - Elusive Tabs

Artists:  A B C D E F G H I J K L M N O P Q R S T U V W X Y Z # 

Elusive Tabs

(ver. 2) Click to play this song!
Scott Matthews
---------------------------------------------------------------------
Scott Matthews - Elusive
---------------------------------------------------------------------


---------------------------------------------------------------------

Tuning: D A D G B e

note: generic rhythm patterns shown

---------------------------------------------------------------------

Introduction : 

e |----------------|----------------|----------------|---------------|
B |----------------|----------------|----------------|---------------|
G |----------------|----------------|----------------|---------------|
D |00000--0-00-----|00000--0-00-----|00000--0-00-----|00000---0---0--|
A |----------------|----------------|----------------|-------------44|
D |00000--0-00-----|00000--0-00-----|00000--0-00-----|00000---0---000|


Verse :

       She's a....                     The coldest hearts...
e |----------------|----------------|----------------|----------------|
B |----------------|----------------|----------------|----------------|
G |----------------|----------------|----------------|----------------|
D |---------00--0--|----------------|00000-00--------|----------------|
A |44444--4------00|22222--2--44--44|---------44---00|22222--2--44-444|
D |00000--0-00--000|00000--0--00--00|00000-00-00---00|00000--0--00-000|

       Taking down...                 As I learn...
e |----------------|----------------|----------------|----------------|
B |----------------|----------------|----------------|----------------|
G |----------------|----------------|----------------|----------------|
D |00000--0--------|----------------|00000-00--------|----------------|
A |---------44--000|22222--2--44--44|---------44---00|22222--2--44-444|
D |00000--0-00--000|00000--0--00--00|00000-00-00---00|00000--0--00-000|


Chorus :

      She's elusive...                  A mystery now...
e |----------------|----------------|----------------|----------------|
B |----------------|----------------|----------------|----------------|
G |----------------|----------------|----------------|----------------|
D |00000-----------|----------------|44444-42-22--222|22222--2--44----|
A |-------4-44---00|22222--2--00--00|22222-22-22--000|00000--0--00-444|
D |55555--5-55---22|22222--2--22--22|----------------|-------------555|

      she said my destiny...          (1st time...)
e |----------------|----------------|  |----------------|---------------|
B |----------------|----------------|  |----------------|---------------|
G |----------------|----------------|  |----------------|---------------|
D |00000-----------|----------------|  |00000--0-00-----|00000--00---0--|
A |-------4-44--444|22222--2--00-000|  |----------------|-------------44|
D |55555--5-55--555|22222--2--22-222|  |00000--0-00-----|00000--00---000|


Break after 2nd chorus:

e |0--0--0--0--0---|0--0--0--0--0---|0--0--0--0--0---|0--0--0---------|
B |-0--0--0--0--0-0|-0--0--0--0--0-0|-0--0--0--0--0-0|-0--0-----------|
G |--0--0--0--0--0-|--0--0--0--0--0-|--0--0--0--0--0-|--0--0----------|
D |----------------|----------------|----------------|----------------|
A |----------------|----------------|----------------|----------------|
D |2--4--5--0--2---|2--4--5--0--2---|2--4--5--0--2---|2--4--5---------|
            
Submit corrections

↑ Back to top | Tablatures and chords for acoustic guitar and electric guitar, ukulele, drums are parodies/interpretations of the original songs. You may use it for private study, scholarship, research or language learning purposes only