Home » S » Scott Matthews »

Scott Matthews - Elusive Tabs

Artists:  A B C D E F G H I J K L M N O P Q R S T U V W X Y Z # 

Elusive Tabs

(ver. 1) Click to play this song!
Scott Matthews
-------------------------------------------------------------------------------
-------------------------------------------------------------------------------

Tuning: eBGDAD

I've seen a couple of tabs to this incredible song, but the choruses and outros were way off!
I've got most of it figured out, but can't work out the picking for the middle 8, after 
second chorus. If anyone can work it out (or if I've got the whole song horribly 
please let me know.
Toodles. Happy playing.

Intro:

e|---------------------------------------------------------------------------|
B|---------------------------------------------------------------------------|
G|---------------------------------------------------------------------------|
D|-----00000-00000------00000-00000----0-00000-00000------00000-00000--------|
A|-----55555-55555------55555-55555----0-55555-55555------55555-55555--------|
D|-----00000-00000------00000-00000----0-00000-00000------00000-00000--------|

Verse:
          She's a gambler...               The coldest heart...

e|---------------------------------------------------------------------------|
B|---------------------------------------------------------------------------|
G|---------------------------------------------------------------------------|
D|---0-00000-00000----0-00000-00000------00000-00000----0-00000-00000--------|
A|---0-44444-44444----0-22222-44444------55555-55544----0-22222-44444--------|
D|---0-00000-00000----0-00000-00000------00000-00000----0-00000-00000--------|

          Taking down...                    As I learn...

e|---------------------------------------------------------------------------|
B|---------------------------------------------------------------------------|
G|---------------------------------------------------------------------------|
D|---0-00000-00000----0-00000-00000------00000-00000----0-00000-0-000--------|
A|---4-55555-54444----0-22222-44444------55555-55544----0-22222-2-444--------|
D|---0-00000-00000----0-00000-00000------00000-00000----0-00000-0-000--------|

Chorus:
        She's elusive...                        A mystery now...

e|---------------------------------------------------------------------------|
B|---------------------------------------------------------------------------|
G|---0-00000-00000--(000)-00000-00000-----00000-00000------------------------|
D|---0-00000-00000--(000)-00000-00000-----00000-00000------00000-00000-------|
A|---4-44444-44444--(444)-22222-22220-----99999-99999---xx-99999-99999-------|
D|---0-55555-55555--(555)-22222-22222-----99999-99999---xx-77777-77777-------|

          She said my destiny...

e|---------------------------------------------------------------------------|
B|---------------------------------------------------------------------------|
G|-----00000-00000------00000-00000------------------------------------------|
D|-----00000-00000------00000-00000----0-00000-00000------00000-00000--------|
A|--xx-44444-44444--xxx-44444-44444----0-55555-55555------55555-55555--------|
D|--xx-44444-44444--xxx-55555-55555----0-00000-00000------00000-00000--------|

Repeat full verse
Repeat chorus

Middle 8:
[Don't know the picking, just the bass notes...]

e|---------------------------------------------------------------------------|
B|---------------------------------------------------------------------------|
G|---------------------------------------------------------------------------|
D|---------------------------------------------------------------------------|
A|---------------------------------------------------------------------------|
D|--2--4--5--7-7------2--4--5--7-7------2--4--5--7-7------2--4--5--7-7-------|

Repeat half verse
Repeat chorus

Outro:
(listen to song for strumming pattern)
(the slide up&slide down thing is optional, but that's what it looks like he does live)

e|---------------------------------------------------------------------------|
B|---------------------------------------------------------------------------|
G|---11--12-----11-12-14----9--11-12----11/12\11--9--7-----------------------|
D|---x---x------x--x--x-----x--x--x------x--------x--x-----------------------|
A|---9---10-----9--10-12----7--9--10-----9/10\9---7--5-----------------------|
D|---9---10-----0--0--0-----0--0--0------0--------0--0-----------------------|

e|---------------------------------------------------------------------------|
B|---------------------------------------------------------------------------|
G|---11--12-(11-12-11~)--11-12-14----9--11-12----11/12\11--9--7--------------|
D|---x---x--(x--x--x)----x--x--x-----x--x--x------x--------x--x--------------|
A|---9---10-(10-10-10)---9--10-12----7--9--10-----9/10\9---7--5--------------|
D|---9---10-(10-10-10)---0--0--0-----0--0--0------0--------0--0--------------|


| /  slide up
| \  slide down
| h  hammer-on
| p  pull-off
| ~  vibrato
| +  harmonic
| x  Mute note
===============================================================================
            
Submit corrections

↑ Back to top | Tablatures and chords for acoustic guitar and electric guitar, ukulele, drums are parodies/interpretations of the original songs. You may use it for private study, scholarship, research or language learning purposes only