Home » S » Scorpions »

Scorpions - Wind Of Change Bass

Artists:  A B C D E F G H I J K L M N O P Q R S T U V W X Y Z # 

Wind Of Change Bass

(ver. 1) Click to play this song!
Scorpions
Song     :Wind Of Change (Bass)
Artist   :Scorpions

TUNING   : E A D G

Intro:
       F       Dm        F       Dm       Am7      Dm       C        G
G||--------|--------|--------|--------|--------|--------|--------|--------|
D||--------|--------|--------|--------|--------|--------|--------|--------|
A||--------|--------|--------|--------|--------|--------|--------|--------|
E||--------|--------|--------|--------|--------|--------|--------|--------|

Verse:
|--------------------|--------------------|--------------------|
|--------------------|--------------------|--------------------|
|-----------3--------|-----------5--------|-----------3--------|
|--------------------|--------------------|--------------------|
                                                 
|--------------------|--------------------|
|--------------------|--------------------|
|-----------5--------|--3-----------------|
|--------------------|-----------3--------|
                                                         
|-------------------|-------------------|-------------------|
|-------------------|-------------------|-------------------|
|--3----------------|--5----------------|--3----------------|
|-------------------|-------------------|-------------------|

|--------------------|--------------------|
|--------------------|--------------------|
|-----------5--------|--3-----------------|
|--------------------|-----------3--------|
 
Bridge:                                                        
|--------------------|--------------------|--------------------|
|-----------0--------|--------------------|-----------0--------|
|--------------------|--------------------|--------------------|
|-1------------------|-----------1--------|--------------------|
                                                         
|--------------------|--------------------|--------------------|
|--------------------|--------------------|--------------------|
|-----------0--------|-----------5--------|--3-----------------|
|--------------------|--------------------|-----------3--------|
                                                        
Verse:
|-------------------|-------------------|-------------------------|
|-------------------|-------------------|-------------------------|
|--3----------------|--5----------------|--3-------------5/-7\-5--|
|-------------------|-------------------|-------------------------|
                                                         
|--------------------|-------------------|-------------------|
|--------------------|-------------------|-------------------|
|--5--------3--------|-------------------|--3----------------|
|--------------------|--3----------------|-------------------|
                                                         
|-------------------|-------------------|--------------------|-------------------|
|-------------------|-------------------|--------------------|-------------------|
|--5----------------|--3----------------|--5--------3--------|-------------------|
|-------------------|-------------------|--------------------|--3----------------|
 
Chorus:                                                    
|----------------------|----------------------|
|----------------------|----------------------|
|--3------3------------|--5------5------------|
|------------3------3--|------------3------3--|
                                                        
|---------------------|------------------------|--------------------------|
|---------------------|------------------------|--------------------------|
|--3------3-----------|--5--5----5-------------|--------------------------|
|------------3--------|-------------3--3----3--|--5--5--5--5--1--1--1--1--|
                                                                   
|-----------|-------------------|-------------------|
|-----------|-------------------|-------------------|
|-----------|--3----------------|-------------------|
|--3--------|-------------------|-------------------|
 
Verse:                                                    
|--------------------|--------------------|--------------------|
|--------------------|--------------------|--------------------|
|---3---3---3---3----|---5---5---5---5----|---3---3---3---3----|
|--------------------|--------------------|--------------------|
                                              
|--------------------|--------------------|
|--------------------|--------------------|
|-----------5----5---|--3----3------------|
|--------------------|-----------3--------|

|--------------------|--------------------|--------------------|
|--------------------|--------------------|--------------------|
|---3---3---3---3----|---5---5---5---5----|---3---3---3---3----|
|--------------------|--------------------|--------------------|
                                              
|--------------------|--------------------|
|--------------------|--------------------|
|-----------5----5---|--3----3------------|
|--------------------|-----------3--------|

Chorus:
|----------------------|----------------------|---------------------|
|----------------------|----------------------|---------------------|
|--3------3------------|--5------5------------|--3------3-----------|
|------------3------3--|------------3------3--|------------3--------|
                                                        
|------------------------|--------------------------|-----------|
|------------------------|--------------------------|-----------|
|--5--5----5-------------|--------------------------|-----------|
|-------------3--3----3--|--5--5--5--5--1--1--1--1--|--3--------|
                                                                   
|----------------------|----------------------|---------------------|
|----------------------|----------------------|---------------------|
|--3------3------------|--5------5------------|--3------3-----------|
|------------3------3--|------------3------3--|------------3--------|
                                                        
|------------------------|--------------------------|-----------|
|------------------------|--------------------------|-----------|
|--5--5----5-------------|--------------------------|-----------|
|-------------3--3----3--|--5--5--5--5--1--1--1--1--|--3--------|

Breakdown:                                                       
|---------------------------|---------------------------|
|---------------------------|---------------------------|
|--0----0---0-0-0--0--0-0-0-|---------------------------|
|---------------------------|--3----3---3-3-3--3--3-3-3-|
                                    
|---------------------------|---------------------------|
|---------------------------|---------------------------|
|--0----0---0-0-0--0--0-0-0-|---------------------------|
|---------------------------|--3----3---3-3-3--3--3-3-3-|
                                    
|---------------------------|---------------------------|
|---------------------------|---------------------------|
|--3----3---3-3-3--3--3-3-3-|--5----5---5-5-5--5--5-5-5-|
|---------------------------|---------------------------|

Solo:                                                           
|--------------------------------|---------------------------|
|--------------------------------|---------------------------|
|--------------------------------|---------------------------|
|--0---------0---0-0-0--0--0-0-0-|--0----0---0-0-0--0--0-0-0-|
                                     
|------------------------------|------------------------------|
|------------------------------|------------------------------|
|------------------------------|------------------------------|
|--1--1-1-1--1-1-3--3-3-3--3-3-|--0--0-0-0--0-0-5--5-5-5--5-5-|
                                      
|------------------------------|------------------------------|
|------------------------------|------------------------------|
|------------------------------|--0--0-0-0--0-0-0--0-0-0--0-0-|
|--1--1-1-1--1-1-3--3-3-3--3-3-|------------------------------|
                                      
|------------------------------|------------------------------|
|------------------------------|------------------------------|
|------------------------------|------------------------------|
|--1--1-1-1--1-1-3--3-3-3--3-3-|--0--0-0-0--0-0-5--5-5-5--5-5-|
                                    
|--------------------------|---------------------------|
|--------------------------|---------------------------|
|--5--5----5---5--5----5---|---------------------------|
|--------------------------|--0----0---0-0-0--0--0-0-0-|
                                                    
Chorus:                                                     
|----------------------|----------------------|---------------------|
|----------------------|----------------------|---------------------|
|--3------3------------|--5------5------------|--3------3-----------|
|------------3------3--|------------3------3--|------------3--------|
                                                        
|------------------------|--------------------------|-----------|
|------------------------|--------------------------|-----------|
|--5--5----5-------------|--------------------------|-----------|
|-------------3--3----3--|--5--5--5--5--1--1--1--1--|--3--------|
                                                                   
|----------------------|----------------------|---------------------|
|----------------------|----------------------|---------------------|
|--3------3------------|--5------5------------|--3------3-----------|
|------------3------3--|------------3------3--|------------3--------|
                                                        
|------------------------|--------------------------|-----------|
|------------------------|--------------------------|-----------|
|--5--5----5-------------|--------------------------|-----------|
|-------------3--3----3--|--5--5--5--5--1--1--1--1--|--3--------|

Outro:
|--------------------|--------------------|--------------------|
|--------------------|--------------------|--------------------|
|--------------------|--------------------|--------------------|
|-1----------/10-----|-----------1--------|------------/10-----|
                                                         
|--------------------|--------------------|--------------------||
|--------------------|--------------------|--------------------||
|-----------0--------|-----------5--------|--------------------||
|--------------------|--------------------|--------------------||
            
Submit corrections

↑ Back to top | Tablatures and chords for acoustic guitar and electric guitar, ukulele, drums are parodies/interpretations of the original songs. You may use it for private study, scholarship, research or language learning purposes only