Home » S » Scorpions »

Scorpions - Wind Of Change Tabs

Artists:  A B C D E F G H I J K L M N O P Q R S T U V W X Y Z # 

Wind Of Change Tabs

(ver. 1) Click to play this song!
Scorpions
[Intro]
 
e|---------------------0--------------0--1--3--0-----------1--0-----0--------1-------------|
B|---1-----------1--3-----1--3-----3-----------------------------3-----3--------3----------|
G|---0-----0-----------------2--2--------------------0-----------------------------2-------|
D|---2--2-----2--------------0--------------------2-----2-----------------0----------------|
A|---3-----------------------------------------3-------------------------------------------|
E|-----------------------------------------------------------------------------------------|

e|---------------------------0-------------------------------------------------------------|
B|---1--------0--------------1-------------------------------------------------------------|
G|---------2--------------0--0-------------------------------------------------------------|
D|------2--------------0-----2-------------------------------------------------------------|
A|---0--------------2--------3-------------------------------------------------------------|
E|---------------3-------------------------------------------------------------------------|             
Submit corrections

↑ Back to top | Tablatures and chords for acoustic guitar and electric guitar, ukulele, drums are parodies/interpretations of the original songs. You may use it for private study, scholarship, research or language learning purposes only