» » »

Scorpions - Bad Boys Running Wild Bass

Artists:  A B C D E F G H I J K L M N O P Q R S T U V W X Y Z # 

Bad Boys Running Wild Bass

(ver. 3) Click to play this song!
Scorpions
 Rating:
4/5 (4 votes)

 Bad Boys Running Wild lessons Tabs too difficult? Try these video lessons and learn fast
 
                -----------------------------------------------------------------------------
                      BAD BOYS RUNNING WILD - Scorpions
-----------------------------------------------------------------------------


Tuning:  E A D G


INTRO
     x2
|------|-------|--------|----------|--------|--------|--------|--------|---.----|
|:----:|5:-----|--------|:--------:|--------|--------|--------|--------|---2----|
|:----:|4:-----|--------|:--------:|--------|--------|--------|--------|-----2--|
|------|-------|0~~~~~~~|-~~~~~~~~-|~~~~---0|0~~~~~~~|~~~~~~~~|~~~~~~~-|--0---03|


BREAK 1
         x3                  x3
|----------|--------|----------|--------|
|:--------:|------02|:--------:|---2----|
|:--------:|--------|:--------:|-----2--|
|-0-00-00--|0-00-0--|-0-00-00--|0-0-0-03|


VERSE 1
|--------|--------|--------|--------|--------|--------|--------|--------|
|------02|0-00-0-0|--------|--------|------02|0-00-0-0|--------|--------|
|--------|------3-|0-00-0-0|3~032---|--------|------3-|0-00-0-0|3~032~22|
|0-00-0--|--------|------3-|------3-|0-00-0--|--------|------3-|--------|

|--------|--------|--------|--------|
|--------|-----000|--------|--------|
|3-33-33-|---23---|3-333333|3~~\----|
|-------0|233-----|--------|--------|


BREAK 2
|--------|--------|--------|--------|
|--------|-------2|--------|------02|
|--------|--------|--------|--------|
|0-00-00-|0-00-00-|0-00-00-|0-00-0--|


VERSE 2
|--------|--------|--------|--------|--------|--------|--------|--------|
|------02|0-00-0-0|--------|--------|------02|0-00-0-0|--------|--------|
|--------|------3-|0-00-0-0|3~032---|--------|------3-|0-00-0-0|3~032~22|
|0-00-0--|--------|------3-|------3-|0-00-0--|--------|------3-|--------|

|--------|--------|-------------|
|--------|-----000|5:-----------|
|3-33-33-|----3---|4:3-3333333~\|
|-------0|2333----|-------------|


CHORUS 1
|--------|--------|--------|--------|--------|--------|--------|--------|--------|
|2-0202--|------00|-0------|--------|--------|------00|-000----|--------|3:------|
|--------|0-------|---023--|-----3--|--------|0-------|----23--|3333333\|4:------|
|--------|--3-00--|--------|-0123--0|302000--|--3-0---|--------|--------|--------|


BREAK 3
         x3                  x3
|----------|--------|----------|--------|
|:--------:|------02|:--------:|---2----|
|:--------:|--------|:--------:|-----2--|
|-0-00-00--|0-00-0--|-0-00-00--|0-0-0-03|


VERSE 3
|--------|--------|--------|--------|--------|--------|--------|--------|
|------02|0-00-0-0|--------|--------|------02|0-00-0-0|--------|--------|
|--------|------3-|0-00-0-0|3~032---|--------|------3-|0-00-0-0|3~032~02|
|0-00-0--|--------|------3-|------3-|0-00-0--|--------|------3-|--------|

|--------|--------|------------|
|--------|-----000|5:----------|
|3-33-33-|---23---|4:3-3333233-|
|-------0|233-----|------------|


CHORUS 2
|--------|--------|--------|--------|--------|--------|--------|--------|
|2-0202--|------00|-0-0----|--------|--------|------00|-000----|--------|
|--------|0-------|----23--|-----3--|--------|0-------|----23--|3333333\|
|--------|--3-00--|--------|-0123--0|302000--|--3-00--|--------|--------|

|--------|--------|--------|--------|--------|--------|--------|--------|
|2-0202--|------00|-0-0----|--------|--------|------00|3:-00---|--------|
|--------|0-------|----23--|-----3--|--------|0-------|4:---023|~~~~~~~~|
|--------|--3-00--|--------|-0123--0|302000--|--3-0---|--------|--------|

|---------|--------|------5\|--------|---------|--------|--------|
|---------|--------|--------|--------|---------|--------|--------|
|~~~-10~~\|3~~~~~~~|~~~~~~--|3~~~~~~~|~~--10~~\|33333333|--------|
|---------|--------|--------|--------|---------|--------|--------|


SOLO
|--------|--------|--------|--------|--------|--------|--------|--------|
|------02|0-00-0-0|--------|--------|------02|0-00-0-0|--------|--------|
|--------|------3-|0-00-0-0|3~032---|--------|------3-|0-00-0-0|3~032~02|
|0-00-0--|--------|------3-|------3-|0-00-0--|--------|------3-|--------|

|--------|--------|------------|
|--------|-----000|5:----------|
|3-33333-|---23---|4:3-2323323-|
|-------0|233-----|------------|


OUTRO
|--------|--------|--------|--------|--------|--------|--------|--------|
|2-0202--|------00|-0------|--------|--------|------00|-000----|--------|
|--------|0-------|---023--|-----3--|--------|0-------|----23--|3333333\|
|--------|--3-00--|--------|-0123--0|302000--|--3-00--|--------|--------|

|--------|--------|--------|--------|--------|--------|--------|--------|
|2-0202--|------00|-0-0----|--------|--------|------00|3:-00---|--------|
|--------|0-------|----23--|-----3--|--------|0-------|4:---023|~~~~~~~~|
|--------|--3-00--|--------|-0123--0|302000--|--3-0---|--------|--------|

|--------|--------|--------|--------|--------|--------|
|---2-020|--------|---2-020|--------|---2-020|2-------|
|~~~-----|3~~~~~~~|~~~-----|3~~~~~~~|~~------|--------|
|--------|--------|--------|--------|--------|--------|
            
Submit corrections


        Bad Boys Running Wild lessons Hard to play? Try these video lessons and learn fast Bad Boys Running Wild lessons
        
↑ Back to top | Tablatures and chords for acoustic guitar and electric guitar, ukulele, drums are parodies/interpretations of the original songs. You may use it for private study, scholarship, research or language learning purposes only