» » »

Scorpions - Bad Boys Running Wild Tabs

Artists:  A B C D E F G H I J K L M N O P Q R S T U V W X Y Z # 

Bad Boys Running Wild Tabs

(ver. 2) Click to play this song!
Scorpions
 Rating:
4.4/5 (7 votes)


 Bad Boys Running Wild lessons Tabs too difficult? Try these video lessons and learn fast
 
                

There's a rythm you have to follow all over this song.
If you listen to it you can't miss it! In some points I added it,
but in some others you have to find it by yourself. It generaly goes like:

RYTHM|-1-x-1-2-4-4-4-x-x-x-1-|  1=Normal
                                x=Hand muted and really short
                                2=Long
                                4=Really long

INTRO|-----------------------------------|               M=Hand Muted
     |-----------------------------------|
     |-----5=4-----7=5-4-4-5=4-----7=5-4-|            PLAY INTRO 4 TIMES
     |-2-2-5=4-5-5-7=5-4-4-5=4-5-5-7=5-4-|
     |-2-2-3=2-5-5-5=3-2-2-3=2-5-5-5=3-2-|   THE FIRST 2 DO NOT PLAY THE MUTED NOTES
     |-0-0-----3-3-------------3-3-------|
         M       M       M       M        

VERSE|-------------------------------------------------------------|
     |-------------------------------------------------------------| THE LAST CHORD DOESN'T HAVE TO BE PLAYED
     |-------------------------------------------------------------| THE FIRST TIME, BUT YOU CAN PLAY IT
     |-2-2-2--2---------4---------7==================5-----------4-|                  IF YOU WANT TO!
     |-2-2-2--2---------4---------7==================5-----------4-|
     |-0-0-0--0---------2---------5==================3-----------2-|
         M 
          Out in the streets      Dogs are on the run cats are all in heat
          Out in the streets      Snakes are all around you dirty rats are on their

BRIDGE|-------------------------------------------|
      |-------------------------------------------|
      |-----------------------------------------5-|
      |-5--5-5----5--5----5---5----5---4---4-4--5-|
      |-5--5-5----5--5----5---5----5---4---4-4--3-|
      |-3--3-3----3--3----3---3----3---2---2-2----|
           M M    M  M    M   M    M   M   M M
       Way  They control you and they make you pay

CHORUS|-------------------------------------------------|
      |-------------------------------------------------|
      |-------------------------------------------------|
      |-2-2-7=5----------4----4-4--4-4----4----4-4----5-|
      |-2-2-7=5----------4----4-4--4-4----4----4-4----5-|
      |-0-0-5=3----------2----2-2--2-2----2----2-2----3-|
          M              M    M M  M M    M    M M     
   ...Wild       If you don't play along with their games
            
Submit corrections



        Bad Boys Running Wild lessons Hard to play? Try these video lessons and learn fast Bad Boys Running Wild lessons
        
↑ Back to top | Tablatures and chords for acoustic guitar and electric guitar, ukulele, drums are parodies/interpretations of the original songs. You may use it for private study, scholarship, research or language learning purposes only