» » »

Say Hi To Your Mom - These Fangs Tabs

Artists:  A B C D E F G H I J K L M N O P Q R S T U V W X Y Z # 

These Fangs Tabs

(ver. 2) Click to play this song!
Say Hi To Your Mom
 Rating:
3.6/5 (5 votes)

 These Fangs lessons Tabs too difficult? Try these video lessons and learn fast
 
                (Intro)
e|-----|--------------------------------------|
B|-----|--------------------------------------|           [intro]
B|--9~-|--------------------------------------|  4x's
D|--9~-|--------9--------9-------9-------9-9--|
A|--7~-|----7-7---7-7-7----7~--7---7-7-7------|
E|-----|--------------------------------------|
      p.m.  . .   . . .    .   .   . . .


e|-------------------------------------------|      [verse]
B|-------------------------------------------|
B|-------------------------------------------|
D|----------9--------9-------9-------9-------|
A|------7-7---7-7-7----7~--7---7-7-7---7-----|
E|-------------------------------------------|
  p.m.  . .   . . .    .   .   . . .   .

 then

e|-------------------------------------------|      [verse]
B|-------------------------------------------|
B|-------------------------------------------|
D|-------------------------------------------|
A|----------9-------9--------9-------9-------|
E|------7-7---7-7-7----7~--7---7-7-7---7-----|
  p.m.  . .   . . .    .   .   . . .   .

  Then

e|-------------------------------------------|      [verse]
B|-------------------------------------------|
B|-------------------------------------------|
D|----------7-------7-------7--------7-------|
A|------5-5---5-5-5----5~--5---5-5-5---5-----|
E|-------------------------------------------|
  p.m.  . .   . . .    .   .   . . .   .
            
Submit corrections


        These Fangs lessons Hard to play? Try these video lessons and learn fast These Fangs lessons
        
↑ Back to top | Tablatures and chords for acoustic guitar and electric guitar, ukulele, drums are parodies/interpretations of the original songs. You may use it for private study, scholarship, research or language learning purposes only