» » »

Say Hi To Your Mom - Laundry Tabs

Artists:  A B C D E F G H I J K L M N O P Q R S T U V W X Y Z # 

Laundry Tabs

(ver. 1) Click to play this song!
Say Hi To Your Mom
 Rating:
4/5 (4 votes)

 Laundry lessons Tabs too difficult? Try these video lessons and learn fast
 
                ----------------------------------------------------------------------------
----------------------------------------------------------------------------

Tuning: Standard Tuning

e|--------------------------------|
B|--6-6--x--6-6-------------------|
G|--6-6--x--6-6----7-7--5-5-5-6---|
D|--6-6--x--6-6----8-8--6-6-6-6---|
A|--4-4--x--4-4----8-8--6-6-6-6---|
E|-----------------6-6--4-4-4-4---|

| /  slide up
| \  slide down
| h  hammer-on
| p  pull-off
| ~  vibrato
| +  harmonic
| x  Mute note
===============================================================================
            
Submit corrections


        Laundry lessons Hard to play? Try these video lessons and learn fast Laundry lessons
        
↑ Back to top | Tablatures and chords for acoustic guitar and electric guitar, ukulele, drums are parodies/interpretations of the original songs. You may use it for private study, scholarship, research or language learning purposes only