Home » S » Satie Erik »

Satie Erik - Gymnopedie No Tabs

Artists:  A B C D E F G H I J K L M N O P Q R S T U V W X Y Z # 

Gymnopedie No Tabs

(ver. 1) Click to play this song!
Satie Erik
"(1)
Gymnopedie no.1  - Satie
~~~~~~~~~~~~~~~
Arranged for guitar by John Kean.

Standard tuning.

Melody notes are marked with a "#" to distinguish them from the chords.
These notes could be brought out using artificial harmonics.

3/4 time (each beat = "---" in the tab).

Lente (MM = 88).

 $
||----4-----|----4-----|----4-----|----4-----|---#4-#7--|#5-#4-----|
||----5-----|----4-----|----5-----|----4-----|----5-----|----4-#4--|
||----6-----|----4-----|----6-----|----4-----|----6-----|----4-----|
||----------|----------|----------|----------|----------|----------|
||-0--------|----------|-0--------|----------|-0--------|----------|
||----------|-0--------|----------|-0--------|----------|-0--------|


|----4-----|----4-----|----4-----|----4-----|----4-----|----4-----|
|---#4-#5--|----4-----|----5-----|----4-----|----5-----|----4-----|
|#6--6-----|#4--------|----6-----|----4-----|----6-----|----4-----|
|----------|----------|#6--------|#6--------|#6--------|#6--------|
|-0--------|----------|-0--------|----------|-0--------|----------|
|----------|-0--------|----------|-0--------|----------|-0--------|


|---#4-#7--|#5-#4-----|----4-----|----4-----|----4-----|#4--------|
|----5-----|----4-#4--|---#4-#5--|----4-----|#4--------|----5-----|
|----6-----|----4-----|#6--6-----|#4--------|----4-----|----6-----|
|----------|----------|----------|----------|----------|----------|
|-0--------|----------|-0--------|----------|----------|-4--------|
|----------|-0--------|----------|-0--------|-4--------|----------|


|----------|----------|----------|----2-----|#2-#0-----|----2-----|
|----2-----|----5-----|----5-----|---#2-#3--|----2-#2--|#5-#3-#2--|
|----2-----|----2-----|----4-----|#4--4-----|----2-----|----2-----|
|#4--------|----------|----5-----|----------|----------|----2-----|
|----------|----------|----------|-2--------|----------|----------|
|-2--------|-2--------|-0--------|----------|-0--------|-0--------|


|#0--------|------#0--|#2-#3-#5--|#7----#0--|#2-#0-----|#0--------|
|----0-----|----0-----|----3-----|---#3-----|----2-#2--|----0-----|
|----4-----|----4-----|----4-----|----4-----|----2-----|----4-----|
|----4-----|----5-----|----------|----4-----|----2-----|----4-----|
|----5-----|----5-----|----------|----------|----------|----5-----|
|-0--------|-0--------|-0--------|-0--------|-0--------|-0--------|

              To Coda %
|------#0--|#5--------||#4--------|----4-----|------#2--|---#0-#2--|
|----0-----|----2-----||----4-----|----5-----|#4-#5-----|#4--0-----|
|----4-----|----2-----||----4-----|#6-#4-#6--|----4-----|----1-----|
|----5-----|----------||----------|----------|----4-----|----------|
|----5-----|----------||----------|-4--------|----------|----------|
|-0--------|-2--------||-4--------|----------|-2--------|-2--------|

             arp.        arp.
|-------5--|-10--------|-12--------||
|----5--5--|--7--------|--9--------||
|#1--4--6--|--7--------|--9--------|| D.S. $
|-------4--|--9--------|--9--------|| al Coda
|----4-----|--9--------|-11--------||
|-2--------|--7--------|--0--------||


 % Coda                                                   arp.     arp.
||#3--------|------#3--|#2-#0-----|#2-#0-----|-------5--|-10-----|-12-----||
||----0-----|#2-#3-----|------#3--|------#3--|----5--5--|--7-----|-12-----||
||----0-----|----4-----|----4-----|----4-----|#0--4--6--|--7-----|--9-----||
||----------|----5-----|----4-----|----5-----|-------4--|--9-----|--9-----||
||----------|----------|----------|----------|----4-----|--9-----|-10-----||
||-2--------|-2--------|-2--------|-2--------|-2--------|--7-----|--0-----||
"            
Submit corrections

↑ Back to top | Tablatures and chords for acoustic guitar and electric guitar, ukulele, drums are parodies/interpretations of the original songs. You may use it for private study, scholarship, research or language learning purposes only