» » »

Saosin - Youre Not Alone Tabs

Artists:  A B C D E F G H I J K L M N O P Q R S T U V W X Y Z # 

Youre Not Alone Tabs

(ver. 3) Click to play this song!
Saosin
 Rating:
4/5 (4 votes)

 Youre Not Alone lessons Tabs too difficult? Try these video lessons and learn fast
 
                ----------------------------------------------------------------------------
                        YOU'RE NOT ALONE - Saosin
----------------------------------------------------------------------------

Tuning: Drop C (CGCFAD)

Intro:                                             x2
D|-000-000-0000000000-000-000--0-0-0-0-0-0-0-0-0-0--|
A|-888-777-3333333333-888-777--10101012101012101210-|
F|-9------------------9-----------------------------|
C|--------------------------------------------------|
G|--------------------------------------------------|
C|--------------------------------------------------|

Verse:                                             x3
D|--------------------------------------------------|
A|-888-777-3333333333-888-777--10101012121212121212-|
F|-9------------------9-----------------------------|
C|--------------------------------------------------|
G|--------------------------------------------------|
C|--------------------------------------------------|

Pre-Chorus:
D|---------------------------------------------------------------------|
A|-1010101010101010-1010101010101010-1212121212121212-1212121212121212-|
F|---------------------------------------------------------------------|
C|---------------------------------------------------------------------|
G|---------------------------------------------------------------------|
C|---------------------------------------------------------------------|

Chorus:                               x2
D|-------------------------------------|
A|-------------------------------------|
F|-------------------------------------|
C|-55555555-------------------33333333-|
G|-33333333-66666666-11111111-11111111-|
C|----------66666666-11111111----------|

Bridge:    x2
D|----------|
A|----------|
F|----------|
C|----------|
G|-66666666-|
C|-66666666-|

Verse

Pre-Chorus

2nd Chorus:                           x3
D|-------------------------------------|
A|-------------------------------------|
F|-------------------------------------|
C|-55555555-------------------33333333-|
G|-33333333-66666666-11111111-11111111-|
C|----------66666666-11111111----------|

Bridge

Solo:
D|---------------------------------------------------------------------|
A|-8---10-8-10/12-8-10p8-7h8-------------8---10-8-7-5-12-10-12-13/17---|
F|---7-----------------------7/9\7-9\7~~---7---------------------------|
C|---------------------------------------------------------------------|
G|---------------------------------------------------------------------|
C|---------------------------------------------------------------------|

Piano Chorus

1st Chorus

Intro

Outro:
D|--------------------------------------------------|
A|-888-777-3333333333-888-777--10101012121212121212-|
F|-9------------------9-----------------------------|
C|--------------------------------------------------|
G|--------------------------------------------------|
C|--------------------------------------------------|

D|-----------------------|
A|-888-777-3333333333/10-|
F|-9---------------------|
C|-----------------------|
G|-----------------------|
C|-----------------------|

| /  slide up
| \  slide down
| h  hammer-on
| p  pull-off
| ~  vibrato
| +  harmonic
| x  Mute note
============================================================================
            
Submit corrections


        Youre Not Alone lessons Hard to play? Try these video lessons and learn fast Youre Not Alone lessons
        
↑ Back to top | Tablatures and chords for acoustic guitar and electric guitar, ukulele, drums are parodies/interpretations of the original songs. You may use it for private study, scholarship, research or language learning purposes only