» » »

Saosin - Youre Not Alone Bass

Artists:  A B C D E F G H I J K L M N O P Q R S T U V W X Y Z # 

Youre Not Alone Bass

(ver. 1) Click to play this song!
Saosin
 Rating:
4/5 (4 votes)

 Youre Not Alone lessons Tabs too difficult? Try these video lessons and learn fast
 
                Band: Saosin

Tuning: Standard (EADG)


Intro/Verse
G|-------------------------|
D|-------------------------|    
A|-5555555-0----------087--|  ---------
E|-----------66666666------|          |
                                      |
G|-----------------------------|      |--- x2 
D|-----------------------------|      |
A|-5555555-0---------------087-| ------
E|-----------6666666688888-----| 

G|-------------------------|
D|-------------------------|    
A|-5555555-0----------087--|
E|-----------66666666------|

Pre-Chorus 
G|--------------------------|
D|--------------------------|   
A|-1111111-333333333—3/12\0-|
E|--------------------------|

Chorus  
G|-------------------------------
D|-------------------------------
A|-5555555-----------------------
E|---------6666666-1111111111111-           
     
-----------------------------------------------|
-----------------------------------------------|
-5555555---------88888887777777----------------|
---------6666666----------------66666666666666-|
        
Verse
G|-------------------------|
D|-------------------------|    
A|-5555555-0----------087--|  
E|-----------66666666------|          
                                      
G|-----------------------------|       
D|-----------------------------|      
A|-5555555-0---------------087-| 
E|-----------6666666688888-----| 

G|-------------------------|
D|-------------------------|    
A|-5555555-0----------087--|  
E|-----------66666666------|          

Pre-Chorus
G|--------------------------|
D|--------------------------|   
A|-1111111-333333333—3/12\0-|
E|--------------------------|

Chorus  
G|-------------------------------
D|-------------------------------
A|-5555555-----------------------
E|---------6666666-1111111111111-           
     
--------------------------------|
--------------------------------|
-5555555---------88888887777777-|
---------6666666----------------|

|----------------------------------------------|
|----------------------------------------------|
|-5555555----------------3333333---------------|
|---------6666666-1111111-------66666666666666-|

Guitar Solo 
|-------------------------------------------------------|
|-------------------------------------------------------|
|----------------------------5555555555555--------------|
|-1111111111111-666666666666---------------666666666666-|

|-------------------------------------------------------|
|------------------------------------------111111111111-|
|----------------------------5555555555555--------------|
|-1111111111111-666666666666----------------------------|

Break (let all notes ring)
|-------------------------------------------------------|
|-------------------------------------------------------|
|-5~---------------------0/5~-----------8~-7~-----------|
|--------6~------1~---------------6~--------------------|

Final Chorus
G|-------------------------------
D|-------------------------------
A|-5555555-----------------------
E|---------6666666-1111111111111-           
     
--------------------------------|
--------------------------------|
-5555555---------88888887777777-|
---------6666666----------------|

|-----------------------------------------------------------|
|-----------------------------------------------------------|
|-5555555----------------3333333----------------------------|
|---------6666666-1111111-------666666666666666666666666666-|

Outro
G|-------------------------|
D|-------------------------|    
A|-5555555-0----------087--|  
E|-----------66666666------|          
                                      
G|-----------------------------|       
D|-----------------------------|      
A|-5555555-0-------------------|
E|-----------6666666688888-----| 

That’s it! Cool song – cool band !


Enjoy !
            
Submit corrections


        Youre Not Alone lessons Hard to play? Try these video lessons and learn fast Youre Not Alone lessons
        
↑ Back to top | Tablatures and chords for acoustic guitar and electric guitar, ukulele, drums are parodies/interpretations of the original songs. You may use it for private study, scholarship, research or language learning purposes only