» » »

Saosin - Lost Symphonies Tabs

Artists:  A B C D E F G H I J K L M N O P Q R S T U V W X Y Z # 

Lost Symphonies Tabs

(ver. 2) Click to play this song!
Saosin
 Rating:
4/5 (4 votes)

 Lost Symphonies lessons Tabs too difficult? Try these video lessons and learn fast
 
                Lost Symphonies tab by Saosin

Tuning	 : Drop D
Legend	 : /   - slide
	   h   - hammer on
	   p   - pull off
	   •   - palm mute
	   b   - bend
	   x   - mute
           [1] - guitar #1
           [2] - guitar #2
Note     : Just listen to the song for the timings & blending.
=========================================================================================================
INTRO:
[1]
e||---------------------------------------------------------|
B||---------------------------------------------------------|
G||---------------------------------------------------------| (2x)
D||-10101010101010101010-----------------------7---10-------|
A||--8-8-8-8-8-8-8-8-8-8--0-7-8-0-7-8-0-7-8-10---8----8-7-8-|
D||--8-8-8-8-8-8-8-8-8-8------------------------------------|

[2]
e||-----------------------12h13-12-12h13-12-12h13-12-12h13-12h13-12h13-|
B||--------------------------------------------------------------------|
G||--------------------------------------------------------------------| (2x)
D||-10101010101010101010-----------------------------------------------|
A||--8-8-8-8-8-8-8-8-8-8-----------------------------------------------|
D||--8-8-8-8-8-8-8-8-8-8-----------------------------------------------|

[1] To install the notion that I divided by I!
e||-------------------------------------------------|
B||-------------------------------------------------|
G||-------------------------------------------------|
D||-------------------------------------------------|
A||-------------------------------------------------|
D||-------------------------------------------------|
=========================================================================================================
VERSE 1:
[2]
e||----------10-8-----------------------------------|
B||---10---8--------8---8h10------------------------|
G||-7----7--------7---7-----------------------------|
D||-------------------------------------------------|
A||-------------------------------------------------|
D||-------------------------------------------------|

[1] Replace the occasion to speak...
e||-10----8--------------------------------------------------13--17--1313--|
B||----10---10-8---8h10-10-8-------------------------------13--13--13------|
G||--------------7-----------10-9-7-9-9/10-9--7-5-7-7/10-9-----------------| (3x)
D||------------------------------------------------------------------------|
A||------------------------------------------------------------------------|
D||------------------------------------------------------------------------|

[2]
e||----------10-8-----------------------------------|
B||---10---8--------8---8h10------------------------|
G||-7----7--------7---7-----------------------------| (12x)
D||-------------------------------------------------|
A||-------------------------------------------------|
D||-------------------------------------------------|
=========================================================================================================
CHORUS:
[1]
e||----13-12-13---------------13-12-13----------------13-12-13----------------13-12-13-12-13-17-13-|
B||------------------------------------------------------------------------------------------------|
G||------------14-12-------------------14-12-------------------14-12-------------------------------| (2x)
D||-12---------------12-15-12----------------12-15-12----------------12-15-12----------------------|
A||------------------------------------------------------------------------------------------------|
D||------------------------------------------------------------------------------------------------|

[2]
e||---------------------------------------------------------------------------|
B||---------------------------------------------------------------------------|
G||---------------------------------------------------------------------------|
D||-12\0-0--•0•0-0--10--1010101010101010\0-0-•0•0•0•0-0--10--1010101010101010-|
A||-12\0-0--•0•0-0---8--1010101010101010\0-0-•0•0•0•0-0---8--1010101010101010-|
D||-12\0-0--•0•0-0---8--1010101010101010\0-0-•0•0•0•0-0---8--1010101010101010-|
=========================================================================================================
VERSE 2: (Same as Verse 1)

(Repeat Chorus)
=========================================================================================================
BRIDGE:
[1]
e||-------------------------------------------------|
B||-------------------------------------------------|
G||-------------------------------------------------| (4x)
D||-----------------------------10------------------|
A||-0-7-8-0-7-8-0-7-8-0-7h8-7h8----8----------------|
D||-------------------------------------------------|

[2]
e||-------------------------------------------------|
B||-------------------------------------------------|
G||-------------------------------------------------| (4x)
D||-0-----------------------------------------------|
A||-0-----------------------------------------------|
D||-0-----------------------------------------------|

[1] & [2] Before commemorationg!...
e||-------------------------------------------------|
B||-------------------------------------------------|
G||-------------------------------------------------| (8x)
D||-----------------------------10------------------|
A||-0-7-8-0-7-8-0-7-8-0-7h8-7h8----8----------------|
D||-------------------------------------------------|

[1]			[2]
e||-----------------|	e||-----------------|
B||-----------------|	B||-----------------|
G||-----------------|	G||-----------------|
D||-----------------|	D||-6/7-5-3-2-3-5-7-|
A||-7/8-7-5-3-1-3-5-|	A||-----------------|
D||-----------------|	D||-----------------|

END
            
Submit corrections


        Lost Symphonies lessons Hard to play? Try these video lessons and learn fast Lost Symphonies lessons
        
↑ Back to top | Tablatures and chords for acoustic guitar and electric guitar, ukulele, drums are parodies/interpretations of the original songs. You may use it for private study, scholarship, research or language learning purposes only