» » »

Saosin - Lost Symphonies Bass

Artists:  A B C D E F G H I J K L M N O P Q R S T U V W X Y Z # 

Lost Symphonies Bass

(ver. 1) Click to play this song!
Saosin
 Rating:
4/5 (4 votes)

 Lost Symphonies lessons Tabs too difficult? Try these video lessons and learn fast
 
                Lost Symphonies
Saosin
Translating The Name


Tuning: Drop C (CGCF)

Legend:

~ - Let Ring
h - Hammer On
x - Ghost Note

Note:

Chris Sorenson plays it with a pick,...
_____________________________________________________

INTRO

F|-------------------------------------|
C|-------------------------------------|    2x
G|-3-3-3-33-33-3-33--------------------|
C|-------------------2-2-2-2-2-2-2-2---|

INTERLUDE

F|-----------------------------------|
C|----Idle---------------------------|
G|-----------------------------------|
C|-----------------------------------|

VERSE

F|---------------------------------------------------------------|
C|---------------------------------------------------------------|
G|----------------------------------3-333-33-3-33-3--0~-0~-0~-0~-|
C|-2-22-22-2-22-2--5-555-55-5-55-5-------------------------------|

F|----------------------------------------------------------------|
C|----------------------------------------------------------------|  2x
G|-----------------------------------3-333-33-3-33-3--0~-0~-0~-0~-|
C|-2-22-22-2-22-3-4-5-555-55-5-55-5-------------------------------|

CHORUS

F|---------------------------------------------------------------------|
C|---------------------------------------------------------------------|
G|---------------------------------------------------------------------|
C|--2~----xx-2~---00--10-10-10-10-10-10-10-10-14-14-14-14-12-12-12-12--|

F|-------------------------------------------------------------------------|
C|-------------------------------------------------------------------------|
G|-------------------------------------------------------------------------|
C|--2~----xx-x-x-2~---00--10-10-10-10-10-10-10-10-14-14-14-14-12-12-12-12--|

INTERLUDE

F|-----------------------------------|
C|----Idle---------------------------|
G|-----------------------------------|
C|-----------------------------------|

VERSE

F|---------------------------------------------------------------|
C|---------------------------------------------------------------|
G|----------------------------------3-333-33-3-33-3--0~-0~-0~-0~-|
C|-2-22-22-2-22-2--5-555-55-5-55-5-------------------------------|

F|----------------------------------------------------------------|
C|----------------------------------------------------------------|  2x
G|-----------------------------------3-333-33-3-33-3--0~-0~-0~-0~-|
C|-2-22-22-2-22-3-4-5-555-55-5-55-5-------------------------------|

CHORUS

F|---------------------------------------------------------------------|
C|---------------------------------------------------------------------|
G|---------------------------------------------------------------------|
C|--2~----xx-2~---00--10-10-10-10-10-10-10-10-14-14-14-14-12-12-12-12--|

F|-------------------------------------------------------------------------|
C|-------------------------------------------------------------------------|
G|-------------------------------------------------------------------------|
C|--2~----xx-x-x-2~---00--10-10-10-10-10-10-10-10-14-14-14-14-12-12-12-12--|

ADLIB

G|-----------------------------------------|
D|-----------------------------------------|
A|-----------------------------------------|
D|---2~-----2~-----2~-----2-2-2-2-2-2-2-2--|

BRIDGE

F|----------------------------------------------|
C|----------------------------------------------|
G|----------------------------------------------|
C|-22222222-77777777-22222222-1212121212121212--|

F|--------------------------------------|
C|--------------------------------------|
G|----------00000000----------00000000--|
C|-22222222----------22222222-----------|

F|--------------------------------------|
C|--------------------------------------|
G|-77777777-00000000-77777777-55555555--|
C|--------------------------------------|

OUTRO

F|-------------------------------|
C|-------------------------------|
G|--9h10~-9~-7~-5~-3~-5~-7~------|
C|-------------------------------|

END



Please Rate,... :o
            
Submit corrections


        Lost Symphonies lessons Hard to play? Try these video lessons and learn fast Lost Symphonies lessons
        
↑ Back to top | Tablatures and chords for acoustic guitar and electric guitar, ukulele, drums are parodies/interpretations of the original songs. You may use it for private study, scholarship, research or language learning purposes only