» » »

Saosin - Follow And Feel Tabs

Artists:  A B C D E F G H I J K L M N O P Q R S T U V W X Y Z # 

Follow And Feel Tabs

(ver. 3) Click to play this song!
Saosin
 Rating:
4.3/5 (6 votes)

 Follow And Feel lessons Tabs too difficult? Try these video lessons and learn fast
 
                i love this song.. and no one had i tabbed out so here it is...
Tuning: DADGBe
----------------------------------------------------------------------------
                       SAOSIN-FOLLOW AND FEEL
----------------------------------------------------------------------------
intro. (Fade in)(slight Flange)
e|-----------5|
B|-----------3|
G|-----------2|
D|0~----------|
A|0~(fade in)-|
D|0~----------|
(no FLange)
e|--------------5-8-10-8---------------5-5-8-8-10-10-8-8| (x2)
B|6-5-6------------------6-5-6--------------------------|
G|--------5-7-5------------------5-7-5------------------|
D|------7----------------------7------------------------|
A|------------------------------------------------------|
D|------------------------------------------------------|

Verse (x1)
|--------------------------------------------|--------------|(x4)
|--------------------------------------------|6-5-6---------|
|--------------------------------------------|--------5-7-5-|
|7~-7/5~-5\7777777777777777-5555555555555555-|------7-------|
|--------------------------------------------|--------------|
|5~-5/3~-3\5555555555555555-3333333333333333-|--------------|

Chorus
1st guitar

|12-13-10~-12-13-10~-12-13-10~-12-13-10-13-12-10|(x2)
|-----------------------------------------------|
|-----------------------------------------------|
|-----------------------------------------------|
|-----------------------------------------------|

2nd Guitar

|--------------------|(x2)
|--------------------|
|--------------3-----|
|0-0-0~-3-3-3~-3(x32)|
|0-0-0~-3-3-3~-1-----|
|0-0-0~-3-3-3~-------|

Intro
|--------------5-8-10-8---------------5-5-8-8-10-10-8-8|(x2)
|6-5-6------------------6-5-6--------------------------|
|--------5-7-5------------------5-7-5------------------|
|------7----------------------7------------------------|
|------------------------------------------------------|
|------------------------------------------------------|

Verse (x1)
|--------------------------------------------|--------------|(x4)
|--------------------------------------------|6-5-6---------|
|--------------------------------------------|--------5-7-5-|
|7~-7/5~-5\7777777777777777-5555555555555555-|------7-------|
|--------------------------------------------|--------------|
|5~-5/3~-3\5555555555555555-3333333333333333-|--------------|

Chorus
1st guitar

|12-13-10~-12-13-10~-12-13-10~-12-13-10-13-12-10|(x2)
|-----------------------------------------------|
|-----------------------------------------------|
|-----------------------------------------------|
|-----------------------------------------------|

2nd Guitar

|--------------------|(x2)
|--------------------|
|--------------3-----|
|0-0-0~-3-3-3~-3(x32)|
|0-0-0~-3-3-3~-1-----|
|0-0-0~-3-3-3~-------|

Bridge pt.1 both guitars
|--------------------|
|--------------------|
|7~-5~-3~-7~-5~-3~-3~|
|7~-5~-3~-7~-5~-3~-3~|
|5~-3~-1~-5~-3~-1~-1~|
|--------------------|

Bridge pt. 2 guitar 1
|12-13-10~-12-13-10~--------------------------------------|
|---------------------------------------------------------|
|-----------------------7-9-10-9-7----7-9-10-9-7----7-10-9|
|--------------------10------------10------------10-------|
|---------------------------------------------------------|
|---------------------------------------------------------|

|12-13-10~-12-13-10~-------------------------------------|
|--------------------------------------------------------|
|-----------------------7-9-10-9-7----7-9-10-9-7-9/10-9-7|
|--------------------10------------10--------------------|
|------------------------------------------------7/8--7-5|
|--------------------------------------------------------|

Bridge pt. 2 guitar 2

|--------------------------------------------------|
|--------------------------------------------------|
|7------5------3------7------5------3------9/10-9-7|
|7(x16)-5(x16)-3(x32)-7(x16)-5(x16)-3(x24)---------|
|5------3------1------5------3------1------7/8--7-5|
|--------------------------------------------------|

Chorus
1st guitar

|12-13-10~-12-13-10~-12-13-10~-12-13-10-13-12-10|(x2)
|-----------------------------------------------|
|-----------------------------------------------|
|-----------------------------------------------|
|-----------------------------------------------|

2nd Guitar

|--------------------|(x2)
|--------------------|
|--------------3-----|
|0-0-0~-3-3-3~-3(x32)|
|0-0-0~-3-3-3~-1-----|
|0-0-0~-3-3-3~-------|

Outro.
1st guitar
|12-13-10~|
|---------|
|---------|
|---------|
|---------|
|---------|

2nd Guitar (some funky effects on the fade out)
|----------5~~~~~~~~~~~~~~~~~~~~~~~~~~~~~~|
|----------3~~5h6p5p3~~~~~~~~~~~~~~~~~~~~~|
|----------2~~~~~~~~~~~~~~~~~~~~~~~~~~~~~~|
|0-0-0~~~~~~~~~~~~~~~~~~~~~~~~~~~~~~~~~~~~|
|0-0-0~~~~~~~~~~~~~~~~~~~~~~~~~~~~~~~~~~~~|
|0-0-0~~~~~~~~~~~~~~~~~~~~~~~~~~~~~~~~~~~~|

so im pretty sure that this is right... but i think there are still some 1st guitar 
i didnt hear... have fun
| /  slide up
| \  slide down
| h  hammer-on
| p  pull-off
| ~  vibrato
| +  harmonic
| x  Mute note
            
Submit corrections


        Follow And Feel lessons Hard to play? Try these video lessons and learn fast Follow And Feel lessons
        
↑ Back to top | Tablatures and chords for acoustic guitar and electric guitar, ukulele, drums are parodies/interpretations of the original songs. You may use it for private study, scholarship, research or language learning purposes only