» » »

Saosin - Follow And Feel Tabs

Artists:  A B C D E F G H I J K L M N O P Q R S T U V W X Y Z # 

Follow And Feel Tabs

(ver. 1) Click to play this song!
Saosin
 Rating:
4/5 (11 votes)

 Follow And Feel lessons Tabs too difficult? Try these video lessons and learn fast
 
                Hi guys it's my third tab
There are Lead guitar and Rhythm guitar and The Extra guitar

Song goes

Intro
Verse1
Pre-chorus
Chorus
Intro again
Verse2
Pre-Chorus
Chorus
Bridge
Chorus

-------------------------------------------------------------------------------
-------------------------------------------------------------------------------

Tuning:C drop (CGCFAd)

* means Stacatto
|19| means natural harmonic at 19 flet

Intro
Lead guitar
d|---------------------------------12*-10*-----------------------------------12*-10*-|
A|-8p7-----8-----8-----------8-------------12p10-----8-----8-----------8-------------|
F|------7-----7-----9--7--7-----7-----------------7-----7-----9--7--7-----7----------|
C|-----------------------------------------------------------------------------------|
G|-----------------------------------------------------------------------------------|
C|-----------------------------------------------------------------------------------|

|----------------------------------12*-10*------------------------------------12*-10*-|
|-12p8-----8-----8-----------8--------------12p10-----8-----8-----------8-------------|
|-------7-----7-----9--7--7-----7------------------7-----7-----9--7--7-----7----------|
|-------------------------------------------------------------------------------------|
|-------------------------------------------------------------------------------------|
|-------------------------------------------------------------------------------------|

Rhythm guitar
use Tremolo picking(alternative picking)
d|---------------------------------|
A|-12----8----10----15----17----15-|
F|---------------------------------|
C|---------------------------------|X4
G|---------------------------------|
C|---------------------------------|


Verse
Rhythm guitar
|-(D--U)----------------(Down up)---------------(D--U)(start struming fastly)-|
|-10-10-12----------------12-12-10--------------10-10-12---10-----------------|
|-9--9--------------------10-10-----------------9--9--------------------------|
|-7--7--9-----------------9--9--7---------------7--7--9----7------------------|
|-----------------------------------------------------------------------------|
|-----------------------------------------------------------------------------|


Pre-chorus
Rhythm guitar
*notice beat, strum(16beat)
Don't be confused with bass guitar
|--------------| 
|--------------| 
|-9---12----11-|
|--------------|
|-7---10----9--|
|--------------|

Lead guitar
Pre-chorus 1 *Sound is lower(heavier) than intro
|---------------------------------12--10---------------------------------|
|-8p7-----8-----8-----------8-------------8p7-----8-----8-----------8----|
|------7-----7-----9--7--7-----7---------------7-----7-----9--7--7-----7-|
|------------------------------------------------------------------------|
|------------------------------------------------------------------------|
|------------------------------------------------------------------------|
Pre-chorus 2
I'm not sure about this part,it's not clear
|---------------------------------|
|-8p7----8--------8-----8p7-------|
|-----7-----7--7-----9-------7--9-|X2
|---------------------------------|
|---------------------------------|
|---------------------------------|



Chorus
Lead guiar
|----------------------|19|----------------------------------|19|-------------|
|-19--20--17----19--20------20--19--15--19--20--17----19--20------20--19--15--|
|-----------------------------------------------------------------------------|
|-----------------------------------------------------------------------------|
|-----------------------------------------------------------------------------|
|-----------------------------------------------------------------------------|

|----------------------|19|---------------------19--17---------|19|-------------|
|-19--20--17----19--20------20--19--15--19--20----------19--20-------20--19--15-|
|-------------------------------------------------------------------------------|
|-------------------------------------------------------------------------------|
|-------------------------------------------------------------------------------|
|-------------------------------------------------------------------------------|


Rhythm guitar
*Listen to rhythm and play it           
|-----------------------------------| |---------|
|-----------------------------------| |---------|
|-----------------------------------| |---------|
|-2----5----10---------2----9----10-| |-2--2--2-|play these at the End of the song
|-2----5----10---------2----9----10-| |-2--2--2-|
|-2----5----10---------2----9----10-| |-2--2--2-|


Bridge
Rhythm guitar
*play these chords 4 times 
and then play it with Lead guitar and an Extra guitar
|---------------|---|---------|
|---------------|---|---------|
|---------------|---|---------|
|-2----12----10-|X4 |-5--4----|
|-2----12----10-|---|-------5-|
|-2----12----10-|---|---------|

Lead guitar
|----------------------|19|----------------------------------|19|-------------|
|-19--20--17----19--20------20--19--15--19--20--17----19--20------20--19--15--|
|-----------------------------------------------------------------------------|
|-----------------------------------------------------------------------------|
|-----------------------------------------------------------------------------|
|-----------------------------------------------------------------------------|

|----------------------|19|----------------------------------|
|-19--20--17----19--20------20--19--15--19--20--17----19--20-|
|------------------------------------------------------------|
|------------------------------------------------------------|
|------------------------------------------------------------|
|------------------------------------------------------------|

The Extra guitar(third guitar)
First time
d|-----------|
A|-----------|
F|-------9p7-|
C|-----5-----|X5
G|-7-7-------|
C|-----------|
Second time
|-----------|--|-----------|
|-----------|--|---8--7----|
|-------9p7-|--|---------7-|
|-----5-----|X4|-----------|
|-7-7-------|--|-7---------|
|-----------|--|-----------|
            
Submit corrections


        Follow And Feel lessons Hard to play? Try these video lessons and learn fast Follow And Feel lessons
        
↑ Back to top | Tablatures and chords for acoustic guitar and electric guitar, ukulele, drums are parodies/interpretations of the original songs. You may use it for private study, scholarship, research or language learning purposes only