» » »

Sam Cooke - Bring It On Home To Me Tabs

Artists:  A B C D E F G H I J K L M N O P Q R S T U V W X Y Z # 

Bring It On Home To Me Tabs

(ver. 2) Click to play this song!
Sam Cooke
 Rating:
4.2/5 (5 votes)
                (Intro)
This is my interpretation of the piano intro to Bring It On Home To Me by Sam Cooke. 
the other tabs for the rest of the song (I prefer ver. 2).

e---------------------------------------------------------------------------|
B---------------------------------------------------------------------------|
G-------------5-7-------------------------5---------------------------------|
D---0-3-5/7-7-----5/7-5-3-5-0-3-3/5-3-5/7---5-3-3h5p3-0-3-5/7---5---5/7---5-|
A-3-----------------------------------------------------------8---8-----8---|
E---------------------------------------------------------------------------|

e-------------------|
B-------------------|
G-------------------|
D-------------------|
A-8-5-8-----3-3/5-3-|
E-------3/5---------|
            
Submit corrections

↑ Back to top | Tablatures and chords for acoustic guitar and electric guitar, ukulele, drums are parodies/interpretations of the original songs. You may use it for private study, scholarship, research or language learning purposes only