Home » S » Sam Cooke »

Sam Cooke - Bring It On Home To Me Bass

Artists:  A B C D E F G H I J K L M N O P Q R S T U V W X Y Z # 

Bring It On Home To Me Bass

(ver. 1) Click to play this song!
Sam Cooke
[Intro]

G|-----------------------------------------|
D|---------------------3-------------------|
A|-3---------------3-------3---0-------0-2-|
E|-----3---1---3-----------------3---3-----|


[Verse 1]

 "If you ever change your mind..."
G|-----------------------------------------------------------------------------------------------|
D|-------------------------------------3---3---------------------------------------2-3-----------|
A|-3-----3---------------0-2-3---3---3-----------3---3---------------------0-2-3---------3-------|
E|-----3-----0-3---3---3-----------------------3-------3---3-0-1---1-3---3-------------------3---|


[Verse 2]

 "I know I laughed when you left..."
G|-------------------------------------------------------------------------------------------|
D|-------------------------------------------3---3---------------------------------------2-3-|
A|---0-2-3-----3---------------0-2-3---3---3-----------3---3---------------------0-2-3-------|
E|-3---------3-----0-3---3---3-----------------------3-------3---3-0-1---1-3---3-------------|

G|----------|
D|----------|
A|--3-------|
E|------3---|


[Verse 3]

  "I'll give you jewellery..."
G|-------------------------------------------------------------------------------------------|
D|-------------------------------------------3---3---------------------------------------2-3-|
A|---0-2-3-----3---------------0-2-3---3---3-----------3---3---------------------0-2-3-------|
E|-3---------3-----0-3---3---3-----------------------3-------3---3-0-1---1-3---3-------------|

G|----------|
D|----------|
A|--3-------|
E|------3---|


[Verse 4]

 "You know I'll always be your slave..."
G|-------------------------------------------------------------------------------------------|
D|-------------------------------------------3---3---------------------------------------2-3-|
A|---0-2-3-----3---------------0-2-3---3---3-----------3---3---------------------0-2-3-------|
E|-3---------3-----0-3---3---3-----------------------3-------3---3-0-1---1-3---3-------------|

G|----------|
D|----------|
A|--3-------|
E|------3---|


[Verse 5]

  "One more thing, I tried..."
G|-------------------------------------------------------------------------------------------|
D|-------------------------------------------3---3---------------------------------------2-3-|
A|---0-2-3-----3---------------0-2-3---3---3-----------3---3---------------------0-2-3-------|
E|-3---------3-----0-3---3---3-----------------------3-------3---3-0-1---1-3---3-------------|

G|----------|
D|----------|
A|--3-------|
E|------3---|


[Outro]

  "yeah, yeah, yeah..."
G|-------------------------------------------------|
D|-------------------------------------------3---3-|
A|---0-2-3-----3---------------0-2-3---3---3-------|
E|-3---------3-----0-3---3---3---------------------|            
Submit corrections

↑ Back to top | Tablatures and chords for acoustic guitar and electric guitar, ukulele, drums are parodies/interpretations of the original songs. You may use it for private study, scholarship, research or language learning purposes only