» » »

Saint Seiya - Tabs

Artists:  A B C D E F G H I J K L M N O P Q R S T U V W X Y Z # 

Tabs

(ver. 1) Click to play this song!
Saint Seiya
 Rating:
4.3/5 (6 votes)

  lessons Tabs too difficult? Try these video lessons and learn fast
 
                [Main Riff]
e|--------------------0---------3--2----------2--------------------------|
B|---0-----------0---------------------0---0-----0----------0------------|
G|----------0------0-------0-------------2-----------2---2----2----------|
D|--------2---2----------2---2-------------------------1-----------------|
A|---------------------------------2-------------------------------------|
E|---0-------------------------------------------2-----------------------|

e|----------------5----3---2---0---------0--2--3----5---------5--7--8—-7-|
B|--0---------0----------------2--2---2-------------5--5---5-----------8-|
G|-----2---2-------------------2----2---------------5----5-------------9-|
D|-------1-----------0---0-----2---------------------------------------9-|
A|--2-------------2----------------------------------------------------7-|
E|-----------------------------------------------------------------------|

e|-----------------7------------------2----------------------------------------|
B|--8------8----------8------8---8----0-----0----0--0--2--4---5----------5--5--|
G|----9------9----------9------9------2---2---2---------------4---4---4-----4--|
D|------9------9----------------------------------------------5-----5-------5--|
A|------------------------7-----------2-------------2--------------------------|
E|-----------------7-----------------------------------------------------------|            
Submit corrections


         lessons Hard to play? Try these video lessons and learn fast  lessons
        
↑ Back to top | Tablatures and chords for acoustic guitar and electric guitar, ukulele, drums are parodies/interpretations of the original songs. You may use it for private study, scholarship, research or language learning purposes only