Home » S » Saint Seiya »

Saint Seiya - Pegasus Fantasy Tabs

Artists:  A B C D E F G H I J K L M N O P Q R S T U V W X Y Z # 

Pegasus Fantasy Tabs

(ver. 1) Click to play this song!
Saint Seiya
 Rating:
4.3/5 (9 votes)
                e|------------6-4-------6-3-----------6--------------------------------------|
B|--3-6-----5-----3-6-5-----3-6-----5----------------------------------------|
G|------5-3---------------------5-3-----6------------------------------------|
D|----------------------------------------5----------------------5-----------|
A|------------------------------------------3-4-6-----6-4-3-6-4-3--3-4-3-4-6-|
E|------------------------------------------------3-3------------------------|

e|---------------------------------------------------------------------------|
B|---------------------------------------------------------------------------|
G|---------------------------------------------------------------------------|
D|------3-3-3--3-5-----------------------5-------5-----------3-5-------------|
A|--4-6------6-----3-4-6-----6-4-3-6-4-3---3-4-3-------6-4-3-------------6-6-|
E|-----------------------3-3-----------------------4-3-----------4-4-3-3-----|

e|---------------------------------------------------------------------------|
B|---------------------------------------------------------------------------|
G|---------------------------------------------------------------------------|
D|--------------5-------5---3-3-3-4-5-----------------5----------------------|
A|--------6-6-4---3-4-3---4-----------3-6-6-----6-4-3-------6-4-6-6-------6--|
E|--6-4-3-----------------------------------3-3---------3-3---------6-4-3---3|

e|---------------------------------------------------------------------------|
B|---------------------------------------------------------------------------|
G|---------------------------------------------------------------------------|
D|------------------5--------------------------------------------------------|
A|--6-----6---6-4-3-------6-4-6-6-4-6-6-----6--------------------------------|
E|----3-3---3---------3-3---------------3-3---3--------8-8-8-----------------|            
Submit corrections

↑ Back to top | Tablatures and chords for acoustic guitar and electric guitar, ukulele, drums are parodies/interpretations of the original songs. You may use it for private study, scholarship, research or language learning purposes only