» » »

Saint Asonia - Trying To Catch Up With The World Tabs

Artists:  A B C D E F G H I J K L M N O P Q R S T U V W X Y Z # 

Trying To Catch Up With The World Tabs

(ver. 1) Click to play this song!
Saint Asonia
 Rating:
2.8/5 (29 votes)

 Trying To Catch Up With The World  lessons Tabs too difficult? Try these video lessons and learn fast
 
                Tuning: Standard (E) 

INTRO:

e|---------------------------------------------------------------------------|
B|---------------------------------------------------------------------------|
G|---------------------------------------------------------------------------|
D|--7-7xx-7-7-77---xx9-9xx-9-9-99-xx-----------------------------------------|   x2
A|--9-9xx-9-9-99---xx7-7xx-7-7-77-xx-----------------------------------------| 
E|-------------------0-0xx-0-0-00--------------------------------------------|

VERSE 1:

e|---------------------------------------------------------------------------|
B|---------------------------------------------------------------------------|
G|---------------------------------------------------------------------------|
D|--7-7xx-7-7-77---xx9-9xx-9-9-99-xx-----------------------------------------|   x4
A|--9-9xx-9-9-99---xx7-7xx-7-7-77-xx-----------------------------------------| 
E|-------------------0-0xx-0-0-00--------------------------------------------|

BRIDGE 1:

e|---------------------------------------------------------------------------|
B|---------------------------------------------------------------------------|
G|--7-7xx-7-7-77-xx-----------xx---------------------------------------------|
D|--7-7xx-7-7-77-xx-7-7xx-7-7-xx---------------------------------------------|
A|--5-5xx-5-5-55-xx-7-7xx-7-7-xx---------------------------------------------|
E|------------------5-5xx-5-5------------------------------------------------|

VERSE 2:

Guitar 1:

e|---------------------------------------------------------------------------|
B|---------------------------------------------------------------------------|
G|---------------------------------------------------------------------------|
D|--7-7xx-7-7-77---xx9-9xx-9-9-99-xx-----------------------------------------|   x4
A|--9-9xx-9-9-99---xx7-7xx-7-7-77-xx-----------------------------------------| 
E|-------------------0-0xx-0-0-00--------------------------------------------|

Guitar 2:

e|---------------------------------------------------------------------------|
B|---------------------------------------------------------------------------|
G|---------------------------------------------------------------------------|
D|----7---7---7---7---7---7---7---7---7---7---9---9---9---9---9---9----------|   x4
A|--9---9---9---9---9---9---9---9---7---7---7---7---7---7---7---7------------| 
E|---------------------------------------------------------------------------|

BRIDGE 2:

Guitar 1:

e|---------------------------------------------------------------------------|
B|---------------------------------------------------------------------------|
G|--7-7xx-7-7-77-xx-----------xx---------------------------------------------|
D|--7-7xx-7-7-77-xx-7-7xx-7-7-xx---------------------------------------------|
A|--5-5xx-5-5-55-xx-7-7xx-7-7-xx---------------------------------------------|
E|------------------5-5xx-5-5------------------------------------------------|

Guitar 2:

e|---------------------------------------------------------------------------|
B|---------------------------------------------------------------------------|
G|---------------------------------------------------------------------------|
D|----7---7---7---7---7---7---7---7------------------------------------------|   
A|--5---5---5---5---5---5---5---5-----7---7---7---7---7---7---7---7----------| 
E|----------------------------------5---5---5---5---5---5---5---5------------|

CHORUS 1:

Guitar 1:

 Em, D, Am, C    
 Em, D, Am, C, C, D    

Guitar 2:

e|---------------------------------------------------------------------------|
B|---------------------------------------------------------------------------|
G|-/16-------------\14-------------\9--------------/12-----------------------|
D|---------------------------------------------------------------------------|   
A|---------------------------------------------------------------------------| 
E|---------------------------------------------------------------------------|

e|---------------------------------------------------------------------------|
B|---------------------------------------------------------------------------|
G|-/16-------------\14-------------\9--------------/12-----\11---------------|
D|---------------------------------------------------------------------------|   
A|---------------------------------------------------------------------------| 
E|---------------------------------------------------------------------------|            

INSTRUMENTAL 1:

Guitar 1:

e|-----------------|
B|-----------------|
G|-----------------|
D|--7-7xx-7-7-77---|   
A|--9-9xx-9-9-99---| 
E|-----------------|

Guitar 2:

e|-------|
B|-------|
G|--7/9--|
D|-------|   
A|-------| 
E|-------|

VERSE 3:

Guitar 1:

e|---------------------------------------------------------------------------|
B|---------------------------------------------------------------------------|
G|---------------------------------------------------------------------------|
D|--7-7xx-7-7-77---xx9-9xx-9-9-99-xx-----------------------------------------|   x2
A|--9-9xx-9-9-99---xx7-7xx-7-7-77-xx-----------------------------------------| 
E|-------------------0-0xx-0-0-00--------------------------------------------|

e|---------------------------------------------------------------------------|
B|---------------------------------------------------------------------------|
G|---------------------------------------------------------------------------|
D|----7---7---7---7---7---7---7---7---9---9---9---9---9---9---9---9----------|   x2
A|--9---9---9---9---9---9---9---9---7---7---7---7---7---7---7---7------------| 
E|---------------------------------------------------------------------------|

BRIDGE 2:

Guitar 1:

e|---------------------------------------------------------------------------|
B|---------------------------------------------------------------------------|
G|--7-7xx-7-7-77-xx-----------xx---------------------------------------------|
D|--7-7xx-7-7-77-xx-7-7xx-7-7-xx---------------------------------------------|
A|--5-5xx-5-5-55-xx-7-7xx-7-7-xx---------------------------------------------|
E|------------------5-5xx-5-5------------------------------------------------|

Guitar 2:

e|---------------------------------------------------------------------------|
B|---------------------------------------------------------------------------|
G|---------------------------------------------------------------------------|
D|----7---7---7---7---7---7---7---7------------------------------------------|   
A|--5---5---5---5---5---5---5---5-----7---7---7---7---7---7---7---7----------| 
E|----------------------------------5---5---5---5---5---5---5---5------------|

CHORUS 2:

Guitar 1:

 Em, D, Am, C    
 Em, D, Am, C 

Guitar 2:

e|---------------------------------------------------------------------------|
B|---------------------------------------------------------------------------|
G|-/16-------------\14-------------\9--------------/12-----------------------|
D|---------------------------------------------------------------------------|   
A|---------------------------------------------------------------------------| 
E|---------------------------------------------------------------------------|

e|---------------------------------------------------------------------------|
B|---------------------------------------------------------------------------|
G|-/16-------------\14-------------\9--------------/12-----\11---------------|
D|---------------------------------------------------------------------------|   
A|---------------------------------------------------------------------------| 
E|---------------------------------------------------------------------------|

INSTRUMENTAL 2:

Guitar 1:

 Em, D, Am ,C x2

Guitar 2:

e|---------------------------------------------------------------------------|
B|---------------------------------------------------------------------------|
G|-/9--11/12\11--\7--4--/9--11h12-12/14--/12-/11-----------------------------|
D|---------------------------------------------------------------------------|   
A|---------------------------------------------------------------------------| 
E|---------------------------------------------------------------------------|

e|---------------------------------------------------------------------------|
B|---------------------------------------------------------------------------|
G|-/9--11/12\11--\7--4--11b12-x11--11~---------------------------------------|
D|---------------------------------------------------------------------------|   
A|---------------------------------------------------------------------------| 
E|---------------------------------------------------------------------------|

Guitar 3:

e|---------------------------------------------------------------------------|
B|---------------------------------------------------------------------------|
G|---------------------------------------------------------------------------|
D|---------------------------------------------------------------------------|   
A|---------------------------------------------------------------------------| 
E|---------------------------------------------------------------------------|

e|---------------------------------------------------------------------------|
B|-/12--10h12p10-/8-/7--9b11-x11--9~-----------------------------------------|
G|---------------------------------------------------------------------------|
D|---------------------------------------------------------------------------|   
A|---------------------------------------------------------------------------| 
E|---------------------------------------------------------------------------|

BREAKDOWN:

e|---------------------------------------------------------------------------|
B|---------------------------------------------------------------------------|
G|---------------------------------------------------------------------------|
D|--7-7xx-7-7-77---xx9-9xx-9-9-99-xx---7-7xx-7-7-77---9----------------------|   
A|--9-9xx-9-9-99---xx7-7xx-7-7-77-xx---9-9xx-9-9-99---7----------------------| 
E|-------------------0-0xx-0-0-00-xx------------------0----------------------|

CHORUS 3:

Guitar 1:

 Em, D, Am, C x4

Guitar 2:

e|---------------------------------------------------------------------------|
B|---------------------------------------------------------------------------|
G|-/16-------------\14-------------\9--------------/12-----------------------|
D|---------------------------------------------------------------------------|   
A|---------------------------------------------------------------------------| 
E|---------------------------------------------------------------------------|

e|---------------------------------------------------------------------------|
B|---------------------------------------------------------------------------|
G|-/16-------------\14-------------\9--------------/12-----------------------|
D|---------------------------------------------------------------------------|   
A|---------------------------------------------------------------------------| 
E|---------------------------------------------------------------------------| 

e|---------------------------------------------------------------------------|
B|---------------------------------------------------------------------------|
G|-/9--11/12\11--\7--4--/9--11h12-12/14--/12-/11-----------------------------|
D|---------------------------------------------------------------------------|   
A|---------------------------------------------------------------------------| 
E|---------------------------------------------------------------------------|

e|---------------------------------------------------------------------------|
B|---------------------------------------------------------------------------|
G|-/9--11/12\11--\7--4--11b12-x11--11~---------------------------------------|
D|---------------------------------------------------------------------------|   
A|---------------------------------------------------------------------------| 
E|---------------------------------------------------------------------------|

ENDING:

E            
Submit corrections


        Trying To Catch Up With The World  lessons Hard to play? Try these video lessons and learn fast Trying To Catch Up With The World  lessons
        
↑ Back to top | Tablatures and chords for acoustic guitar and electric guitar, ukulele, drums are parodies/interpretations of the original songs. You may use it for private study, scholarship, research or language learning purposes only