» » »

Saint Asonia - Dying Slowly Tabs

Artists:  A B C D E F G H I J K L M N O P Q R S T U V W X Y Z # 

Dying Slowly Tabs

(ver. 1) Click to play this song!
Saint Asonia
 Rating:
4.5/5 (20 votes)

 Dying Slowly  lessons Tabs too difficult? Try these video lessons and learn fast
 
                INTRO PART 1:
Eb|------------------------------------------------------------------------------------------|
Bb|------------------------------------------------------------------------------------------|
Gb|--------0-----------0-----------0-----------0-----------0-------------0----------0--------|
Db|-----4-----4-----4-----4-----4-----4-----4-----4-----4-----4------4-----4-----4-----4-----|
Ab|----------------------------------------------------------------3---3---------------------|
Eb|--0-----------0---------------------------------------------------------------------------|
Ab|--------------------------5-----------5-----------3-----------3------------5-----------5--|

INTRO PART 2:
Eb|-------------------------------------------|
Bb|-------------------------------------------|
Gb|-------------------------------------------|
Db|------------------4h5p4------4h5------5p4--|
Ab|--7-7-9h10p9--5-5--------3-3------5-5------|
Eb|--7-7---------5-5--------3-3------5-5------|
Ab|--7-7---------5-5--------3-3------5-5------|

Eb|----------------------------------------------------|
Bb|----------------------------------------------------|
Gb|----------------------------------------------------|
Db|----------------------------------------------------|
Ab|--7-7-9h10p9--9-9-9h10p9--10-10-12h14--12-12-15p14--|
Eb|--7-7---------9-9---------10-10--------12-12--------|
Ab|--7-7---------9-9---------10-10--------12-12--------|

VERSE:
Eb|---------------------------------------------------------------------------------------------------|
Bb|---------------------------------------------------------------------------------------------------|
Gb|--------0-----------0-----------0-----------0-----------0-------------0----------0-----------0-----|
Db|-----4-----4-----4-----4-----4-----4-----4-----4-----4-----4------4-----4-----4-----4-----4-----4--| x2
Ab|----------------------------------------------------------------3---3------------------------------|
Eb|--0-----------0------------------------------------------------------------------------------------|
Ab|--------------------------5-----------5-----------3-----------3------------5-----------5-----------|

PRECHORUS:
Eb|--------------------------------------------------------------------------------------------|
Bb|--------------------------------------------------------------------------------------------|
Gb|--------0-----------0-----------0-----------0-----------0-----------0-----7-7-7-7-7-7-7-7---|
Db|-----4-----4-----4-----4-----4-----4-----4-----4-----4-----4-----4-----4--7-7-7-7-7-7-7-7---|
Ab|--2-----------2-----------3-----------3-----------2-----------2-----------5-5-5-5-5-5-5-5---|
Eb|--------------------------------------------------------------------------------------------|
Ab|--------------------------------------------------------------------------------------------|
                                                                             . . . . . . . . 
CHORUS:
Eb|------------------------------------|
Bb|------------------------------------|
Gb|------------------------------------|
Db|------------4h5p4-----4h5------5p4--|
Ab|--7----5-5---------3--------5-------|
Eb|--7----5-5---------3--------5-------|
Ab|--7----5-5---------3--------5-------|

Eb|------------------------------------------|
Bb|------------------------------------------|
Gb|------------------------------------------|
Db|------------------------------------------|
Ab|--7----9-9--9h10p9--10--12h14--12--15p14--|
Eb|--7----9-9----------10---------12---------|
Ab|--7----9-9----------10---------12---------|

Eb|----------------------|
Bb|----------------------|
Gb|----------------------|
Db|-----4h5-----5p4------|
Ab|--3-------5-------7---|
Eb|--3-------5-------7---|
Ab|--3-------5-------7---|

This is how the second chorus ends
Eb|----------------------------------------------------|
Bb|----------------------------------------------------|
Gb|----------------------------------------------------|
Db|-----4h5-----5p4------------------------------------|
Ab|--3-------5-------7-7-7-7-7-7-7-7-7-7-7-7-7-7-7-7---|
Eb|--3-------5-------7-7-7-7-7-7-7-7-7-7-7-7-7-7-7-7---|
Ab|--3-------5-------7-7-7-7-7-7-7-7-7-7-7-7-7-7-7-7---|
                     . . . . . . . . . slowly lift the palm mute

BRIDGE:
Eb|------------------------------------------------------------------|
Bb|------------------------------------------------------------------|
Gb|------------------------------------------------------------------|
Db|------------------------------------------------------------------| x2
Ab|--7-7-7-7-7-7-7-7-5-5-5-5-5-5-5-5-3-3-3-3-3-3-3-3-5-5-5-5-5-5-5-5-|
Eb|--7-7-7-7-7-7-7-7-5-5-5-5-5-5-5-5-3-3-3-3-3-3-3-3-5-5-5-5-5-5-5-5-|
Ab|--7-7-7-7-7-7-7-7-5-5-5-5-5-5-5-5-3-3-3-3-3-3-3-3-5-5-5-5-5-5-5-5-|

Eb|-------------------|
Bb|-------------------|
Gb|-------------------|
Db|-------------------|
Ab|--5-5-5-5-5-5-5-5--|
Eb|--5-5-5-5-5-5-5-5--|
Ab|--5-5-5-5-5-5-5-5--|

Eb|------------------------------------------------------------------------------------------|
Bb|------------------------------------------------------------------------------------------|
Gb|--------0-----------0-----------0-----------0-----------0-------------0----------0--------|
Db|-----4-----4-----4-----4-----4-----4-----4-----4-----4-----4------4-----4-----4-----4-----|
Ab|----------------------------------------------------------------3---3---------------------|
Eb|--0-----------0---------------------------------------------------------------------------|
Ab|--------------------------5-----------5-----------3-----------3------------5-----------5--|

OUTRO: 
Eb|----------------------------------|
Bb|----------------------------------|
Gb|----------------------------------|
Db|-----4h5p4---4h5p4----4h5-----5p4-| Lead Guitar

Ab|--7-7-7-7-5-5-5-5-3-3-3-3-5-5-5-5-| Rythm Guitar
Eb|--7-7-7-7-5-5-5-5-3-3-3-3-5-5-5-5-|
Ab|--7-7-7-7-5-5-5-5-3-3-3-3-5-5-5-5-|

Both Guitars go back to playing the same thing after that
Eb|------------------------------------|
Bb|------------------------------------|
Gb|------------------------------------|
Db|------------4h5p4-----4h5------5p4--|
Ab|--7----5-5---------3--------5-------|
Eb|--7----5-5---------3--------5-------|
Ab|--7----5-5---------3--------5-------|

Eb|--------------------|
Bb|--------------------|
Gb|--------------------|
Db|------4h5------5p4--| x3
Ab|--3-3------5-5------|
Eb|--3-3------5-5------|
Ab|--3-3------5-5------|

Eb|---------|
Bb|---------|
Gb|---------|
Db|---------|
Ab|----7----|
Eb|----7----|
Ab|----7----|
Last chord of the song            
Submit corrections


        Dying Slowly  lessons Hard to play? Try these video lessons and learn fast Dying Slowly  lessons
        
↑ Back to top | Tablatures and chords for acoustic guitar and electric guitar, ukulele, drums are parodies/interpretations of the original songs. You may use it for private study, scholarship, research or language learning purposes only