» » »

Saint Asonia - King Of Nothing Tabs

Artists:  A B C D E F G H I J K L M N O P Q R S T U V W X Y Z # 

King Of Nothing Tabs

(ver. 1) Click to play this song!
Saint Asonia
 Rating:
2.5/5 (24 votes)

 King Of Nothing  lessons Tabs too difficult? Try these video lessons and learn fast
 
                Verse 1: 0:00-0:26
 
e|------------------------------------------------------------------------------|
B|------------------------------------------------------------------------------|
G|------------------------------------------------------------------------------|
D|------------------------------------------------------------------------------|
A|--5h7-7-7-7-7-7-7-7--3-3-3-3-3-3-3-3--5-5-5-5--7-7-7-7-7-7-7-7-7-7-7-7-7-7-7--|
E|------------------------------------------------------------------------------|

e|-------------------------------------------------------------------------------|
B|-------------------------------------------------------------------------------|
G|-------------------------------------------------------------------------------|
D|-------------------------------------------------------------------------------|
A|--5h7-7-7-7-7-7-7-7--3-3-3-3-3-3-3-3--0-0-0-0-0-0-0-0-0-0-0-0-0-0-0-0-0-0-0-0--|
E|-------------------------------------------------------------------------------|

(heavy guitar sound)

e|---------------------------------------------------------------------------|
B|---------------------------------------------------------------------------|
G|--7/9--9-9-9--9-9--5-5--5--5-5--5/7--7-7-7--7-9----------------------------|
D|--7/9--9-9-9--9-9--5-5--5--5-5--5/7--7-7-7--7-9------4-5-4-----------------|
A|--5/7--7-7-7--7-7--3-3--3--3-3--3/5--5-5-5--5-7--5-7-------7-5-------------|
E|---------------------------------------------------------------------------|

e|---------------------------------------------------------------------------|
B|---------------------------------------------------------------------------|
G|--7/9--9-9-9--9-9--5-5--5--5-5--2--2--2-2----------------------------------|
D|--7/9--9-9-9--9-9--5-5--5--5-5--2--2--2-2----------------------------------|
A|--5/7--7-7-7--7-7--3-3--3--3-3--0--0--0-0----0-2-3-2-0---------------------|
E|-------------------------------------------5-----------5-------------------|

Bridge: 0:26-0:32

e|---------------------------------------------------------------------------------|
B|---------------------------------------------------------------------------------|
G|--4-4--4-4/5--5-4--4-4-4------------------------4-4--4-4/5--5--------------------|
D|--4-4--4-4/5--5-4--4-4-4--(slide/strum mix)*----4-4--4-4/5--5--------------------|
A|--2-2--2-2/3--3-2--2-2-2------------------------2-2--2-2/3--3--5--2-2-3-5-3-2h3--|
E|---------------------------------------------------------------------------------|

Chorus: 0:33-1:06

e|---------------------------------------------------------------------------|  |
B|---------------------------------------------------------------------------|  |
G|--7/9--9-9-9--9-9--5-5--5--5-5--5/7--7-7-7--7-9---xx-xxx-------------------|  |
D|--7/9--9-9-9--9-9--5-5--5--5-5--5/7--7-7-7--7-9---xx-xxx-------------------|  |
A|--5/7--7-7-7--7-7--3-3--3--3-3--3/5--5-5-5--5-7---xx-xxx-------------------|  |
E|---------------------------------------------------------------------------|  |
                                                                                |     x2
e|---------------------------------------------------------------------------|  |
B|---------------------------------------------------------------------------|  |
G|--7/9--9-9-9--9-9--5-5--5--5-5--2--2--2-2--2-2-xxxx------------------------|  |
D|--7/9--9-9-9--9-9--5-5--5--5-5--2--2--2-2--2-2-xxxx------------------------|  |
A|--5/7--7-7-7--7-7--3-3--3--3-3--0--0--0-0--0-0-xxxx------------------------|  |
E|---------------------------------------------------------------------------|  |
 
                                  
e|---------------------------------------------------------------------------------|
B|---------------------------------------------------------------------------------|
G|--4-4--4-4/5--5-4--4-4-4------------------------4-4--4-4/5--5--------------------|
D|--4-4--4-4/5--5-4--4-4-4--(slide/strum mix)*----4-4--4-4/5--5--------------------|
A|--2-2--2-2/3--3-2--2-2-2------------------------2-2--2-2/3--3--5--2-2-3-5-3-2h3--|
E|---------------------------------------------------------------------------------|

Verse 2: 1:07-1:32
 
e|------------------------------------------------------------------------------|
B|------------------------------------------------------------------------------|
G|------------------------------------------------------------------------------|
D|------------------------------------------------------------------------------|
A|--5h7-7-7-7-7-7-7-7--3-3-3-3-3-3-3-3--5-5-5-5--7-7-7-7-7-7-7-7-7-7-7-7-7-7-7--|
E|------------------------------------------------------------------------------|

e|-------------------------------------------------------------------------------|
B|-------------------------------------------------------------------------------|
G|-------------------------------------------------------------------------------|
D|-------------------------------------------------------------------------------|
A|--5h7-7-7-7-7-7-7-7--3-3-3-3-3-3-3-3--0-0-0-0-0-0-0-0-0-0-0-0-0-0-0-0-0-0-0-0--|
E|-------------------------------------------------------------------------------|

(heavy guitar sound)

e|---------------------------------------------------------------------------|
B|---------------------------------------------------------------------------|
G|--7/9--9-9-9--9-9--5-5--5--5-5--5/7--7-7-7--7-9----------------------------|
D|--7/9--9-9-9--9-9--5-5--5--5-5--5/7--7-7-7--7-9------4-5-4-----------------|
A|--5/7--7-7-7--7-7--3-3--3--3-3--3/5--5-5-5--5-7--5-7-------7-5-------------|
E|---------------------------------------------------------------------------|

e|---------------------------------------------------------------------------|
B|---------------------------------------------------------------------------|
G|--7/9--9-9-9--9-9--5-5--5--5-5--2--2--2-2----------------------------------|
D|--7/9--9-9-9--9-9--5-5--5--5-5--2--2--2-2----------------------------------|
A|--5/7--7-7-7--7-7--3-3--3--3-3--0--0--0-0----0-2-3-2-0---------------------|
E|-------------------------------------------5-----------5-------------------|

Bridge: 1:33-1:39

e|---------------------------------------------------------------------------------|
B|---------------------------------------------------------------------------------|
G|--4-4--4-4/5--5-4--4-4-4------------------------4-4--4-4/5--5--------------------|
D|--4-4--4-4/5--5-4--4-4-4--(slide/strum mix)*----4-4--4-4/5--5--------------------|
A|--2-2--2-2/3--3-2--2-2-2------------------------2-2--2-2/3--3--5--2-2-3-5-3-2h3--|
E|---------------------------------------------------------------------------------|

Chorus: 1:40-2:06

e|---------------------------------------------------------------------------|  |
B|---------------------------------------------------------------------------|  |
G|--7/9--9-9-9--9-9--5-5--5--5-5--5/7--7-7-7--7-9---xx-xxx-------------------|  |
D|--7/9--9-9-9--9-9--5-5--5--5-5--5/7--7-7-7--7-9---xx-xxx-------------------|  |
A|--5/7--7-7-7--7-7--3-3--3--3-3--3/5--5-5-5--5-7---xx-xxx-------------------|  |
E|---------------------------------------------------------------------------|  |
                                                                                |     x2
e|---------------------------------------------------------------------------|  |
B|---------------------------------------------------------------------------|  |
G|--7/9--9-9-9--9-9--5-5--5--5-5--2--2--2-2--2-2-xxxx------------------------|  |
D|--7/9--9-9-9--9-9--5-5--5--5-5--2--2--2-2--2-2-xxxx------------------------|  |
A|--5/7--7-7-7--7-7--3-3--3--3-3--0--0--0-0--0-0-xxxx------------------------|  |
E|---------------------------------------------------------------------------|  |

Breakdown: 2:07-2:45

e|--------------------------------|
B|--------------------------------|
G|--4-----------------------------|
D|--4-x16--5------0-------2-------|
A|--2------5-x16--0--x16--2--x16--|
E|---------5------0-------2-------|

e|-------------------------------|
B|-------------------------------|
G|--4---------------------2------|
D|--4-x16---5------0------2-x16--|
A|--2-------5-x16--0-x16--0------|
E|----------5------0-------------|

e|------------------------------------------------------------------------------|
B|------------------------------------------------------------------------------|
G|------------------------------------------------------------------------------|
D|------------------------------------------------------------------------------|
A|--5h7-7-7-7-7-7-7-7--3-3-3-3-3-3-3-3--5-5-5-5--7-7-7-7-7-7-7-7-7-7-7-7-7-7-7--|
E|------------------------------------------------------------------------------|

e|-------------------------------------------------------------------------------|
B|-------------------------------------------------------------------------------|
G|-------------------------------------------------------------------------------|
D|-------------------------------------------------------------------------------|
A|--5h7-7-7-7-7-7-7-7--3-3-3-3-3-3-3-3--0-0-0-0-0-0-0-0-0-0-0-0-0-0-0-0-0-0-0-0--|
E|-------------------------------------------------------------------------------|

Chorus: 2:46-3:13

e|---------------------------------------------------------------------------|  |
B|---------------------------------------------------------------------------|  |
G|--7/9--9-9-9--9-9--5-5--5--5-5--5/7--7-7-7--7-9---xx-xxx-------------------|  |
D|--7/9--9-9-9--9-9--5-5--5--5-5--5/7--7-7-7--7-9---xx-xxx-------------------|  |
A|--5/7--7-7-7--7-7--3-3--3--3-3--3/5--5-5-5--5-7---xx-xxx-------------------|  |
E|---------------------------------------------------------------------------|  |
                                                                                |     x2
e|---------------------------------------------------------------------------|  |
B|---------------------------------------------------------------------------|  |
G|--7/9--9-9-9--9-9--5-5--5--5-5--2--2--2-2--2-2-xxxx------------------------|  |
D|--7/9--9-9-9--9-9--5-5--5--5-5--2--2--2-2--2-2-xxxx------------------------|  |
A|--5/7--7-7-7--7-7--3-3--3--3-3--0--0--0-0--0-0-xxxx------------------------|  |
E|---------------------------------------------------------------------------|  |

e|---------------------------------------------------------------------------|
B|---------------------------------------------------------------------------|
G|--4-4--4-4/5--5-4--4-4-4------------------------4-4--4-4/5--5--xxxx--------|
D|--4-4--4-4/5--5-4--4-4-4--(slide/strum mix)*----4-4--4-4/5--5--xxxx--------|
A|--2-2--2-2/3--3-2--2-2-2------------------------2-2--2-2/3--3--xxxx--------|
E|---------------------------------------------------------------------------|

e|------------------------------------------------------------------------------------------|
B|------------------------------------------------------------------------------------------|
G|--4-4--4-4/5--5-4--4-4-4-----------------------4-4--4-4/5--5------------------4--4-5-5-4--|
D|--4-4--4-4/5--5-4--4-4-4--(slide/strum mix)*---4-4--4-4/5--5------------------4--4-5-5-4--|
A|--2-2--2-2/3--3-2--2-2-2-----------------------2-2--2-2/3--3--5-3-2-3-0-3-2---2--2-3-3-2--|
E|------------------------------------------------------------------------------------------|            
Submit corrections


        King Of Nothing  lessons Hard to play? Try these video lessons and learn fast King Of Nothing  lessons
        
↑ Back to top | Tablatures and chords for acoustic guitar and electric guitar, ukulele, drums are parodies/interpretations of the original songs. You may use it for private study, scholarship, research or language learning purposes only