» » »

Saint Asonia - Fairy Tale Tabs

Artists:  A B C D E F G H I J K L M N O P Q R S T U V W X Y Z # 

Fairy Tale Tabs

(ver. 1) Click to play this song!
Saint Asonia
 Rating:
3.3/5 (23 votes)

 Fairy Tale  lessons Tabs too difficult? Try these video lessons and learn fast
 
                | -----------------------------------------------------------------|
| -----------------------------------------------------------------|
| -----------------------------------------------------------------|
| -6-6-----------6-6---------------6-6-----------6-6---------------|
| -6-6-----------6-6---------------6-6-----------6-6---------------|
| -4-4--*-*-*-*--4-4--4-6-4-6-4-0--4-4--*-*-*-*--4-4--4-6-4-6-4-0--|
| -----------------------------------------------------------------|
  Intro

| --------------------------------------------------------------------|
| --------------------------------------------------------------------|
| --------------------------------------------------------------------|
| --------------------------------------------------------------------|
| -7-7--*-*-*-*--7-7----------------9-9-----------9-9-----------------|
| -7-7-----------7-7----------------9-9--*-*-*-*--9-9-----------------|
| -7-7-----------7-7--7-9-7-10-9-7--9-9-----------9-9--9-10-9-11-9-0--|
  Intro (continued...)

| -----------------------------------------------------------------------|
| -----------16h17po16---------------------------------------------------|
| -16--18----------------------------------------------------------------|
| -----------------------------------------------------------------------|
| ------------------------6--6-6----6-6----6-6-----6--6-6----6-6----6-6--|
| ------------------------4--4-4----4-4----4-4-----4--4-4----4-4----4-4--|
| -----------------------------------------------------------------------|
 First Verse

| ------------------------------------------|
| ------------------------------------------|
| ------------------------------------------|
| ------------------------------------------|
| -2--2-2----4-4----4-4---6-6--6-6--6--6-6--|
| -0--0-0----2-2----2-2---4-4--4-4--4--4-4--|
| ------------------------------------------|
  First Verse (continued...)

| ---------------------------------------------------------------------------------------------|
| ---------------------------------------------------------------------------------------------|
| ---------------------------------------------------------------------------------------------|
| -6-6-6-6-6--6-6-6-6-6--2-2-2-2-2--2-2-2-2-2--4-4-4-4-4--4-4-4-4-4--7-7--7-7-7--7-7-7--7-7-7--|
| -4-4-4-4-4--4-4-4-4-4--2-2-2-2-2--2-2-2-2-2--4-4-4-4-4--4-4-4-4-4--7-7--7-7-7--7-7-7--7-7-7--|
| -----------------------0-0-0-0-0--0-0-0-0-0--2-2-2-2-2--2-2-2-2-2--5-5--5-5-5--5-5-5--5-5-5--|
| -------------------------------------------------------------------0-0--0-0-0--0-0-0--0-0-0--|
  Pre-Chorus

| --------------------------------------------------------------------------------|
| --------------------------------------------------------------------------------|
| --------------------------------------------------------------------------------|
| -6-6-6-6-6-6--6-6--6-6-6----6-6-6-6-6-6--6-6--6-6-6----2-2-2-2-2-2--2-2--2-2-2--|
| -6-6-6-6-6-6--6-6--6-6-6----6-6-6-6-6-6--6-6--6-6-6----2-2-2-2-2-2--2-2--2-2-2--|
| -4-4-4-4-4-4--4-4--4-4-4----4-4-4-4-4-4--4-4--4-4-4----0-0-0-0-0-0--0-0--0-0-0--|
| --------------------------------------------------------------------------------|
  Chorus

| -------------------------------|
| -------------------------------|
| -------------------------------|
| -4-4-4-4-4-4-------------------|
| -4-4-4-4-4-4--4-4--------------|
| -2-2-2-2-2-2--2-2---4-0-2-4----|
| -------------------------------|
  Chorus (Continued...)

| ---------------------------------|
| -----21--17--19------21--17--19--|
| -20--------------20--------------|
| ---------------------------------|
| ---------------------------------|
| ---------------------------------|
| ---------------------------------|
  Interlude

| -----------------------------------------------------------------------------|
| -----------------------------------------------------------------------------|
| -----------------------------------------------------------------------------|
| -----------------------------------------------------------------------------|
| -6-6--6-6--6--6-6--6-6--6-6--6-6--6-6--2-2--2-2--4-4--4-4--6-6--6-6--6--6-6--|
| -4-4--4-4--4--4-4--4-4--4-4--4-4--4-4--0-0--0-0--2-2--2-2--4-4--4-4--4--4-4--|
| -----------------------------------------------------------------------------|
  Second Verse

| -----------------------------------------|
| -----------------------------------------|
| -----------------------------------------|
| -----------------------------------------|
| -6-6-6-6--8-8-8-8--9-9-9-9--10-10-10-10--|
| -6-6-6-6--8-8-8-8--9-9-9-9--10-10-10-10--|
| -6-6-6-6--8-8-8-8--9-9-9-9--10-10-10-10--|
  Bridge (play 4 times)

Solo Coming Soon...

| -------------------------|
| -------------------------|
| -------------------------|
| -6-----2------4-----6----|
| -6-----2------4-----6----|
| -4-----0------2-----4----|
| -------------------------|
  Bridge/Outro Chorus (Continued...) Listen to album for strumming            
Submit corrections


        Fairy Tale  lessons Hard to play? Try these video lessons and learn fast Fairy Tale  lessons
        
↑ Back to top | Tablatures and chords for acoustic guitar and electric guitar, ukulele, drums are parodies/interpretations of the original songs. You may use it for private study, scholarship, research or language learning purposes only