» » »

Saint Asonia - Blow Me Wide Open Tabs

Artists:  A B C D E F G H I J K L M N O P Q R S T U V W X Y Z # 

Blow Me Wide Open Tabs

(ver. 1) Click to play this song!
Saint Asonia
 Rating:
3.6/5 (23 votes)

 Blow Me Wide Open  lessons Tabs too difficult? Try these video lessons and learn fast
 
                Tuning:
Intro/Verse
e|---------------------------------------------------------------------------|
B|---------------------------------------------------------------------------|
G|---------------------------------------------------------------------------|
D|---------------------------------------------------------------------------|
A|-----/5----------------------------/5--------------------------------------|
E|--0-----3--5--5--5--5--3-----0--0------3--5--5--5--5-3---------------------|

e|---------------------------------------------------------------------------|
B|---------------------------------------------------------------------------|
G|---------------------------------------------------------------------------|
D|---------------------------------------------------------------------------|
A|-----/5--------------------------------------------------------------------|
E|--0-----3--5--5--5--5--3--5/7--5--3--5--3--0-------------------------------|

Prechorus

   Forgettable                  And So Replaceable
e|---------------------------------------------------------------------------|
B|---------------------------------------------------------------------------|
G|---------------------------------------------------------------------------|
D|--8--8--0--7--7--7------------8---------10---------------------------------|
A|--8--8--0--7--7--7------------8---------10---------------------------------|
E|--8--8--0--7--7--7------------8---------10---------------------------------|

Chorus

e|---------------------------------------------------------------------------|
B|---------------------------------------------------------------------------|
G|--7------------------------------------------------------------------------|
D|--7-------8------3-------7------8------------------------------------------|
A|--5-------8------3-------7------8------------------------------------------|
E|-(0)------8------3-------7------8------------------------------------------|

e|---------------------------------------------------------------------------|
B|---------------------------------------------------------------------------|
G|--7------------------------------------------------------------------------|
D|--7-------8------3-------7-------------------------------------------------|
A|--5-------8------3-------7-------------------------------------------------|
E|-(0)------8------3-------7------7--5--3---5--3--2--------------------------|

Bridge

e|---------------------------------------------------------------------------|
B|---------------------------------------------------------------------------|
G|--7------------------------------------------------------------------------|
D|--7---7---10----5----8---3---7----8----------------------------------------|
A|--5---7---10----5----8---3---7----8----------------------------------------|
E|------7---10----5----8---3---7----8----------------------------------------|

e|---------------------------------------------------------------------------|
B|---------------------------------------------------------------------------|
G|--7------------------------------------------------------------------------|
D|--7----8---3---7~~~~-----x-8---x-10----------------------------------------|
A|--5----8---3---7~~~~-----x-8---x-10----------------------------------------|
E|-------8---3---7~~~~-----x-8---x-10----------------------------------------|
            
Submit corrections


        Blow Me Wide Open  lessons Hard to play? Try these video lessons and learn fast Blow Me Wide Open  lessons
        
↑ Back to top | Tablatures and chords for acoustic guitar and electric guitar, ukulele, drums are parodies/interpretations of the original songs. You may use it for private study, scholarship, research or language learning purposes only