Home » R » Ryan Bingham »

Ryan Bingham - Boracho Station Tabs

Artists:  A B C D E F G H I J K L M N O P Q R S T U V W X Y Z # 

Boracho Station Tabs

(ver. 2) Click to play this song!
Ryan Bingham
Boracho Station
By Ryan Bingham
12/12/08

You may have to listen to a live version for the rhythm for the intro and mariachi 
parts.  This is all I have so far.


Intro

   Am      F#7    G?     E
---------------------------------
----1-------1-------3------------
----2-------2-------4-------1----   (Repeat)
----2-------3-------5-------2----
----------------------------2----
---------------------------------

Mariachi stuff

-----------------------------------------
-----------------------------------------
----1-------2-------4-------2-------1----   (Repeat)
----2-------3-------5-------3-------2----
----2-------3-------5-------3-------2----
-----------------------------------------

Mariachi stuff

----0---0---0---0---0---0---0---0---0---0---0------
----------0-----------0-------1---0----------------
------1-----------1-------2-----------2---0--------   (Repeat)
--2-----------2-------------------------------3----
---------------------------------------------------
---------------------------------------------------

Song

--------------------------------------
-------1-1-----1-1-----0-0-----1-1----
--------------------------------------   (Repeat)
-------2-2--0--3-3-------------2-2----
----0------------------2-2--0---------
--------------------0----------------- 
            
Submit corrections

↑ Back to top | Tablatures and chords for acoustic guitar and electric guitar, ukulele, drums are parodies/interpretations of the original songs. You may use it for private study, scholarship, research or language learning purposes only