» » »

Ryan Adams - Stay With Me Tabs

Artists:  A B C D E F G H I J K L M N O P Q R S T U V W X Y Z # 

Stay With Me Tabs

(ver. 1) Click to play this song!
Ryan Adams
 Rating:
4.3/5 (26 votes)

 Stay With Me  lessons Tabs too difficult? Try these video lessons and learn fast
 
                Solo

Standard tuning.


e |---------------------------------------|
B |--------------2h3p2--------------------|
G |--2h4-4-4-2-----------2h4p2------------|
D |---------------------------------------|
A |---------------------------------------|
E |---------------------------------------|

e |---------------------------------------|
B |------------2/7/5--3-2br~--------------|
G |--2h4-4-4-2----------------------------|
D |---------------------------------------|
A |---------------------------------------|
E |---------------------------------------|

e |---------------------------------------|
B |--2h3-2--------------------------------|
G |--------4------------------------------|
D |--------------2h4-2-0-2----------------|
A |-------------------------2-2~----------|
E |---------------------------------------|

e |---------------------------------------|
B |--------------------------3h5p3--------|
G |-------------------2h4p2---------------|
D |-------------2h4p2---------------------|
A |-0h2-2-2-2~----------------------------|
E |---------------------------------------|

e |---------------------------------------|
B |--10--10--10---------------------------|
G |--9b------9b~--------------------------|
D |---------------------------------------|
A |---------------------------------------|
E |---------------------------------------|  
              
Submit corrections


        Stay With Me  lessons Hard to play? Try these video lessons and learn fast Stay With Me  lessons
        
↑ Back to top | Tablatures and chords for acoustic guitar and electric guitar, ukulele, drums are parodies/interpretations of the original songs. You may use it for private study, scholarship, research or language learning purposes only