» » »

Ryan Adams - Stay With Me Bass

Artists:  A B C D E F G H I J K L M N O P Q R S T U V W X Y Z # 

Stay With Me Bass

(ver. 1) Click to play this song!
Ryan Adams
 Rating:
4.3/5 (27 votes)

 Stay With Me  lessons Tabs too difficult? Try these video lessons and learn fast
 
                   [Intro]
   Main riff
G||----------------|----------------|| [x2]
D||----------------|----------------||
A||--------7-6-----|----------------||
E||9---9---------7-|7-7-7-7-5-5-5-5-||

   [Verse 1]
   "Love...               When you call"  
G||----------------|----------------|| [x4]
D||----------------|----------------||
A||--------7-6-----|----------------||
E||9---9---------7-|7-7-7-7-5-5-5-5-||
  
   [Chorus}          
   "Love you baby..."
G||----------------|----------------|----------------|----------------|----------------|----------------||
D||----------------|----------------|----------------|----------------|----------------|----------------||
A||----------------|----------------|----------------|-7-7-7-7-7-7-7-7|----------------|----------------||
E||-5-5-5-5-5-5-5-5|-7-7-7-7-7-7-7-7|-9-9-9-9-9-9-9-9|----------------|-5-5-5-5-5-5-5-5|-7-7-7-7-7-7-7-7||

   "Stay with me..."
G||----------------|----------------|----------------|----------------|| 
D||----------------|----------------|----------------|----------------||
A||--------7-6-----|----------------|--------6-7-----|----------------||
E||9---9---------7-|7-7-7-7-5-5-5-5-|9---9---------7-|7-7-7-7-5-5-5-5-||
   
   [Verse 2] (Same as Verse 1) 
   "Are you waiting"
G||----------------|----------------|| [x4]
D||----------------|----------------||
A||--------7-6-----|----------------||
E||9---9---------7-|7-7-7-7-5-5-5-5-||
   
   [Chorus]
   Same as the first chorus, but play the two bar riff for "stay with me" two times instead of just once 
   like you did in the first chorus.

 "Love you baby..."
G||----------------|----------------|----------------|----------------|----------------|----------------||
D||----------------|----------------|----------------|----------------|----------------|----------------||
A||----------------|----------------|----------------|-7-7-7-7-7-7-7-7|----------------|----------------||
E||-5-5-5-5-5-5-5-5|-7-7-7-7-7-7-7-7|-9-9-9-9-9-9-9-9|----------------|-5-5-5-5-5-5-5-5|-7-7-7-7-7-7-7-7||

   "Stay with me..."
G||----------------|----------------|----------------|----------------|| [x2]
D||----------------|----------------|----------------|----------------||
A||--------7-6-----|----------------|--------6-7-----|----------------||
E||9---9---------7-|7-7-7-7-5-5-5-5-|9---9---------7-|7-7-7-7-5-5-5-5-||

   [Bridge]
   "Is that the speed of sound"
G||----------------|----------------|----------------|----------------|----------------|----------------|
D||----------------|----------------|----------------|----------------|----------------|----------------|
A||----------------|7-7-7-7-7-7-7-7-|----------------|9-9-9-9-9-11-9-7|----------------|9-9-9-9-9-9-9-9-|
E||9-9-9-9-9-9-9-9-|----------------|7-7-7-7-7-7-7-7-|----------------|7-7-7-7-7-7-7-7-|----------------|

G||----------------|----------------|
D||----------------|----------------|
A||----------------|----------------|
E||5-5-5-5-5-5-5-5-|7-7-7-7-7-7-7-7-|

Wash, rinse, and repeat main riff for guitar solo, the final chorus ("stay with me" riff again played two 
times instead of just once), and  the outro.

[Guitar Solo/Final Chorus Outro]

 "Stay with me..."
G||----------------|----------------|----------------|----------------||[Repeat two bar phrase to end of song]
D||----------------|----------------|----------------|----------------||
A||--------7-6-----|----------------|--------6-7-----|----------------||
E||9---9---------7-|7-7-7-7-5-5-5-5-|9---9---------7-|7-7-7-7-5-5-5-5-||
            
Submit corrections


        Stay With Me  lessons Hard to play? Try these video lessons and learn fast Stay With Me  lessons
        
↑ Back to top | Tablatures and chords for acoustic guitar and electric guitar, ukulele, drums are parodies/interpretations of the original songs. You may use it for private study, scholarship, research or language learning purposes only