Home » R » Russian Red »

Russian Red - Just Like A Wall Tabs

Artists:  A B C D E F G H I J K L M N O P Q R S T U V W X Y Z # 

Just Like A Wall Tabs

(ver. 2) Click to play this song!
Russian Red
 Rating:
4/5 (4 votes)
                Capo 3

INTRO:
e--------------------------------------------------|
B--------------------------------------------------|
G-------0----0------0----0------0----0------0----0-|
D----2-----2-----2-----2-----2-----2-----2-----2---|
A-3-----------3-----------3-----------3------------|
E--------------------------------------------------|

VERSE
e--------------------------------------------------|
B-------1-----------0-----------1-----------3------|
G-----0---0--0----0---0--0----2---2--2----0---0--0-|
D---2-------2---2-------2---3-------3---0-------0--|
A-3-----------2-----------3------------------------|
E-------------------------------------3------------|

CHORUS
e--------------------------------------------------|
B-------1-----------1-----------1-----------3------|
G-----2---2--2----0---0--0----2---2--2----0---0--0-|
D---2-------2---2-------2---3-------3---0-------0--|
A-0-----------2-----------3------------------------|
E-------------------------------------3------------|
            
Submit corrections

↑ Back to top | Tablatures and chords for acoustic guitar and electric guitar, ukulele, drums are parodies/interpretations of the original songs. You may use it for private study, scholarship, research or language learning purposes only